  0
SECTION
  2
HEADER
  9
$ACADVER
  1
AC1014
  9
$HANDSEED
  5
FFFF
  9
$MEASUREMENT
 70
     1
  0
ENDSEC
  0
SECTION
  2
TABLES
  0
TABLE
  2
VPORT
  5
8
330
0
100
AcDbSymbolTable
 70
     4
  0
VPORT
  5
2E
330
8
100
AcDbSymbolTableRecord
100
AcDbViewportTableRecord
  2
*ACTIVE
 70
     0
 10
0.0
 20
0.0
 11
1.0
 21
1.0
 12
210.0
 22
148.5
 13
0.0
 23
0.0
 14
10.0
 24
10.0
 15
10.0
 25
10.0
 16
0.0
 26
0.0
 36
1.0
 17
0.0
 27
0.0
 37
0.0
 40
341.0
 41
1.24
 42
50.0
 43
0.0
 44
0.0
 50
0.0
 51
0.0
 71
     0
 72
   100
 73
     1
 74
     3
 75
     0
 76
     0
 77
     0
 78
     0
  0
ENDTAB
  0
TABLE
  2
LTYPE
  5
5
330
0
100
AcDbSymbolTable
 70
     1
  0
LTYPE
  5
14
330
5
100
AcDbSymbolTableRecord
100
AcDbLinetypeTableRecord
  2
BYBLOCK
 70
     0
  3

 72
    65
 73
     0
 40
0.0
  0
LTYPE
  5
15
330
5
100
AcDbSymbolTableRecord
100
AcDbLinetypeTableRecord
  2
BYLAYER
 70
     0
  3

 72
    65
 73
     0
 40
0.0
  0
LTYPE
  5
16
330
5
100
AcDbSymbolTableRecord
100
AcDbLinetypeTableRecord
  2
CONTINUOUS
 70
     0
  3
Solid line
 72
    65
 73
     0
 40
0.0
  0
ENDTAB
  0
TABLE
  2
LAYER
  5
2
100
AcDbSymbolTable
 70
3
  0
LAYER
  5
50
100
AcDbSymbolTableRecord
100
AcDbLayerTableRecord
  2
0
 70
0
  6
CONTINUOUS
  0
LAYER
  5
51
100
AcDbSymbolTableRecord
100
AcDbLayerTableRecord
  2
Layer_1
 70
0
  6
CONTINUOUS
  0
LAYER
  5
52
100
AcDbSymbolTableRecord
100
AcDbLayerTableRecord
  2
holes
 70
0
  6
CONTINUOUS
  0
ENDTAB
  0
TABLE
  2
STYLE
  5
3
330
0
100
AcDbSymbolTable
 70
     1
  0
STYLE
  5
11
330
3
100
AcDbSymbolTableRecord
100
AcDbTextStyleTableRecord
  2
STANDARD
 70
     0
 40
0.0
 41
1.0
 50
0.0
 71
     0
 42
2.5
  3
txt
  4

  0
ENDTAB
  0
TABLE
  2
VIEW
  5
6
330
0
100
AcDbSymbolTable
 70
     0
  0
ENDTAB
  0
TABLE
  2
UCS
  5
7
330
0
100
AcDbSymbolTable
 70
     0
  0
ENDTAB
  0
TABLE
  2
APPID
  5
9
330
0
100
AcDbSymbolTable
 70
     2
  0
APPID
  5
12
330
9
100
AcDbSymbolTableRecord
100
AcDbRegAppTableRecord
  2
ACAD
 70
     0
  0
ENDTAB
  0
TABLE
  2
DIMSTYLE
  5
A
330
0
100
AcDbSymbolTable
 70
     1
  0
DIMSTYLE
105
27
330
A
100
AcDbSymbolTableRecord
100
AcDbDimStyleTableRecord
  2
ISO-25
 70
     0
  3

  4

  5

  6

  7

 40
1.0
 41
2.5
 42
0.625
 43
3.75
 44
1.25
 45
0.0
 46
0.0
 47
0.0
 48
0.0
140
2.5
141
2.5
142
0.0
143
0.03937007874016
144
1.0
145
0.0
146
1.0
147
0.625
 71
     0
 72
     0
 73
     0
 74
     0
 75
     0
 76
     0
 77
     1
 78
     8
170
     0
171
     3
172
     1
173
     0
174
     0
175
     0
176
     0
177
     0
178
     0
270
     2
271
     2
272
     2
273
     2
274
     3
340
11
275
     0
280
     0
281
     0
282
     0
283
     0
284
     8
285
     0
286
     0
287
     3
288
     0
  0
ENDTAB
  0
TABLE
  2
BLOCK_RECORD
  5
1
330
0
100
AcDbSymbolTable
 70
     1
  0
BLOCK_RECORD
  5
1F
330
1
100
AcDbSymbolTableRecord
100
AcDbBlockTableRecord
  2
*MODEL_SPACE
  0
BLOCK_RECORD
  5
1B
330
1
100
AcDbSymbolTableRecord
100
AcDbBlockTableRecord
  2
*PAPER_SPACE
  0
ENDTAB
  0
ENDSEC
  0
SECTION
  2
BLOCKS
  0
BLOCK
  5
20
330
1F
100
AcDbEntity
  8
0
100
AcDbBlockBegin
  2
*MODEL_SPACE
 70
     0
 10
0.0
 20
0.0
 30
0.0
  3
*MODEL_SPACE
  1

  0
ENDBLK
  5
21
330
1F
100
AcDbEntity
  8
0
100
AcDbBlockEnd
  0
BLOCK
  5
1C
330
1B
100
AcDbEntity
 67
     1
  8
0
100
AcDbBlockBegin
  2
*PAPER_SPACE
  1

  0
ENDBLK
  5
1D
330
1B
100
AcDbEntity
 67
     1
  8
0
100
AcDbBlockEnd
  0
ENDSEC
  0
SECTION
  2
ENTITIES
  0
LWPOLYLINE
  5
100
100
AcDbEntity
  8
Layer_1
 62
7
100
AcDbPolyline
 90
6
 70
0
 10
34.668288
 20
47.584058
 30
0.0
 10
38.028288
 20
47.584058
 30
0.0
 10
38.028288
 20
45.304058
 30
0.0
 10
34.668288
 20
45.304058
 30
0.0
 10
34.668288
 20
47.584058
 30
0.0
 10
34.668288
 20
47.584058
 30
0.0
  0
LWPOLYLINE
  5
101
100
AcDbEntity
  8
Layer_1
 62
7
100
AcDbPolyline
 90
6
 70
0
 10
34.668288
 20
42.484058
 30
0.0
 10
38.028288
 20
42.484058
 30
0.0
 10
38.028288
 20
40.204058
 30
0.0
 10
34.668288
 20
40.204058
 30
0.0
 10
34.668288
 20
42.484058
 30
0.0
 10
34.668288
 20
42.484058
 30
0.0
  0
LWPOLYLINE
  5
102
100
AcDbEntity
  8
Layer_1
 62
7
100
AcDbPolyline
 90
6
 70
0
 10
17.448288
 20
47.944058
 30
0.0
 10
20.808288
 20
47.944058
 30
0.0
 10
20.808288
 20
45.664058
 30
0.0
 10
17.448288
 20
45.664058
 30
0.0
 10
17.448288
 20
47.944058
 30
0.0
 10
17.448288
 20
47.944058
 30
0.0
  0
LWPOLYLINE
  5
103
100
AcDbEntity
  8
Layer_1
 62
7
100
AcDbPolyline
 90
6
 70
0
 10
17.448288
 20
42.844058
 30
0.0
 10
20.808288
 20
42.844058
 30
0.0
 10
20.808288
 20
40.564058
 30
0.0
 10
17.448288
 20
40.564058
 30
0.0
 10
17.448288
 20
42.844058
 30
0.0
 10
17.448288
 20
42.844058
 30
0.0
  0
LWPOLYLINE
  5
104
100
AcDbEntity
  8
Layer_1
 62
7
100
AcDbPolyline
 90
6
 70
0
 10
40.428288
 20
42.484058
 30
0.0
 10
43.788288
 20
42.484058
 30
0.0
 10
43.788288
 20
40.204058
 30
0.0
 10
40.428288
 20
40.204058
 30
0.0
 10
40.428288
 20
42.484058
 30
0.0
 10
40.428288
 20
42.484058
 30
0.0
  0
LWPOLYLINE
  5
105
100
AcDbEntity
  8
Layer_1
 62
7
100
AcDbPolyline
 90
6
 70
0
 10
40.428288
 20
47.584058
 30
0.0
 10
43.788288
 20
47.584058
 30
0.0
 10
43.788288
 20
45.304058
 30
0.0
 10
40.428288
 20
45.304058
 30
0.0
 10
40.428288
 20
47.584058
 30
0.0
 10
40.428288
 20
47.584058
 30
0.0
  0
LWPOLYLINE
  5
106
100
AcDbEntity
  8
Layer_1
 62
7
100
AcDbPolyline
 90
6
 70
0
 10
47.808288
 20
44.224058
 30
0.0
 10
50.808288
 20
44.224058
 30
0.0
 10
50.808288
 20
37.984058
 30
0.0
 10
47.808288
 20
37.984058
 30
0.0
 10
47.808288
 20
44.224058
 30
0.0
 10
47.808288
 20
44.224058
 30
0.0
  0
LWPOLYLINE
  5
107
100
AcDbEntity
  8
Layer_1
 62
7
100
AcDbPolyline
 90
6
 70
0
 10
47.808288
 20
56.464058
 30
0.0
 10
50.808288
 20
56.464058
 30
0.0
 10
50.808288
 20
50.224058
 30
0.0
 10
47.808288
 20
50.224058
 30
0.0
 10
47.808288
 20
56.464058
 30
0.0
 10
47.808288
 20
56.464058
 30
0.0
  0
LWPOLYLINE
  5
108
100
AcDbEntity
  8
Layer_1
 62
7
100
AcDbPolyline
 90
6
 70
0
 10
18.228288
 20
19.084058
 30
0.0
 10
20.508288
 20
19.084058
 30
0.0
 10
20.508288
 20
15.724058
 30
0.0
 10
18.228288
 20
15.724058
 30
0.0
 10
18.228288
 20
19.084058
 30
0.0
 10
18.228288
 20
19.084058
 30
0.0
  0
LWPOLYLINE
  5
109
100
AcDbEntity
  8
Layer_1
 62
7
100
AcDbPolyline
 90
6
 70
0
 10
23.328288
 20
19.084058
 30
0.0
 10
25.608288
 20
19.084058
 30
0.0
 10
25.608288
 20
15.724058
 30
0.0
 10
23.328288
 20
15.724058
 30
0.0
 10
23.328288
 20
19.084058
 30
0.0
 10
23.328288
 20
19.084058
 30
0.0
  0
LWPOLYLINE
  5
10a
100
AcDbEntity
  8
Layer_1
 62
7
100
AcDbPolyline
 90
6
 70
0
 10
22.728288
 20
42.604058
 30
0.0
 10
26.088288
 20
42.604058
 30
0.0
 10
26.088288
 20
39.244058
 30
0.0
 10
22.728288
 20
39.244058
 30
0.0
 10
22.728288
 20
42.604058
 30
0.0
 10
22.728288
 20
42.604058
 30
0.0
  0
LWPOLYLINE
  5
10b
100
AcDbEntity
  8
Layer_1
 62
7
100
AcDbPolyline
 90
6
 70
0
 10
22.728288
 20
48.544058
 30
0.0
 10
26.088288
 20
48.544058
 30
0.0
 10
26.088288
 20
45.184058
 30
0.0
 10
22.728288
 20
45.184058
 30
0.0
 10
22.728288
 20
48.544058
 30
0.0
 10
22.728288
 20
48.544058
 30
0.0
  0
LWPOLYLINE
  5
10c
100
AcDbEntity
  8
Layer_1
 62
7
100
AcDbPolyline
 90
6
 70
0
 10
28.548288
 20
42.304058
 30
0.0
 10
31.908288
 20
42.304058
 30
0.0
 10
31.908288
 20
38.944058
 30
0.0
 10
28.548288
 20
38.944058
 30
0.0
 10
28.548288
 20
42.304058
 30
0.0
 10
28.548288
 20
42.304058
 30
0.0
  0
LWPOLYLINE
  5
10d
100
AcDbEntity
  8
Layer_1
 62
7
100
AcDbPolyline
 90
6
 70
0
 10
28.548288
 20
48.244058
 30
0.0
 10
31.908288
 20
48.244058
 30
0.0
 10
31.908288
 20
44.884058
 30
0.0
 10
28.548288
 20
44.884058
 30
0.0
 10
28.548288
 20
48.244058
 30
0.0
 10
28.548288
 20
48.244058
 30
0.0
  0
LWPOLYLINE
  5
10e
100
AcDbEntity
  8
Layer_1
 62
7
100
AcDbPolyline
 90
6
 70
0
 10
48.048288
 20
13.444058
 30
0.0
 10
50.328288
 20
13.444058
 30
0.0
 10
50.328288
 20
10.084058
 30
0.0
 10
48.048288
 20
10.084058
 30
0.0
 10
48.048288
 20
13.444058
 30
0.0
 10
48.048288
 20
13.444058
 30
0.0
  0
LWPOLYLINE
  5
10f
100
AcDbEntity
  8
Layer_1
 62
7
100
AcDbPolyline
 90
6
 70
0
 10
53.088288
 20
13.444058
 30
0.0
 10
55.368288
 20
13.444058
 30
0.0
 10
55.368288
 20
10.084058
 30
0.0
 10
53.088288
 20
10.084058
 30
0.0
 10
53.088288
 20
13.444058
 30
0.0
 10
53.088288
 20
13.444058
 30
0.0
  0
LWPOLYLINE
  5
110
100
AcDbEntity
  8
Layer_1
 62
7
100
AcDbPolyline
 90
6
 70
0
 10
61.068288
 20
51.484058
 30
0.0
 10
64.428288
 20
51.484058
 30
0.0
 10
64.428288
 20
48.124058
 30
0.0
 10
61.068288
 20
48.124058
 30
0.0
 10
61.068288
 20
51.484058
 30
0.0
 10
61.068288
 20
51.484058
 30
0.0
  0
LWPOLYLINE
  5
111
100
AcDbEntity
  8
Layer_1
 62
7
100
AcDbPolyline
 90
6
 70
0
 10
55.128288
 20
51.484058
 30
0.0
 10
58.488288
 20
51.484058
 30
0.0
 10
58.488288
 20
48.124058
 30
0.0
 10
55.128288
 20
48.124058
 30
0.0
 10
55.128288
 20
51.484058
 30
0.0
 10
55.128288
 20
51.484058
 30
0.0
  0
LWPOLYLINE
  5
112
100
AcDbEntity
  8
Layer_1
 62
7
100
AcDbPolyline
 90
6
 70
0
 10
53.808288
 20
44.344058
 30
0.0
 10
57.168288
 20
44.344058
 30
0.0
 10
57.168288
 20
42.064058
 30
0.0
 10
53.808288
 20
42.064058
 30
0.0
 10
53.808288
 20
44.344058
 30
0.0
 10
53.808288
 20
44.344058
 30
0.0
  0
LWPOLYLINE
  5
113
100
AcDbEntity
  8
Layer_1
 62
7
100
AcDbPolyline
 90
6
 70
0
 10
53.808288
 20
39.244058
 30
0.0
 10
57.168288
 20
39.244058
 30
0.0
 10
57.168288
 20
36.964058
 30
0.0
 10
53.808288
 20
36.964058
 30
0.0
 10
53.808288
 20
39.244058
 30
0.0
 10
53.808288
 20
39.244058
 30
0.0
  0
LWPOLYLINE
  5
114
100
AcDbEntity
  8
Layer_1
 62
7
100
AcDbPolyline
 90
6
 70
0
 10
21.948288
 20
10.204058
 30
0.0
 10
28.428288
 20
10.204058
 30
0.0
 10
28.428288
 20
5.644058
 30
0.0
 10
21.948288
 20
5.644058
 30
0.0
 10
21.948288
 20
10.204058
 30
0.0
 10
21.948288
 20
10.204058
 30
0.0
  0
LWPOLYLINE
  5
115
100
AcDbEntity
  8
Layer_1
 62
7
100
AcDbPolyline
 90
6
 70
0
 10
39.768288
 20
10.204058
 30
0.0
 10
46.248288
 20
10.204058
 30
0.0
 10
46.248288
 20
5.644058
 30
0.0
 10
39.768288
 20
5.644058
 30
0.0
 10
39.768288
 20
10.204058
 30
0.0
 10
39.768288
 20
10.204058
 30
0.0
  0
LWPOLYLINE
  5
116
100
AcDbEntity
  8
Layer_1
 62
7
100
AcDbPolyline
 90
6
 70
0
 10
37.188288
 20
58.204058
 30
0.0
 10
38.268288
 20
58.204058
 30
0.0
 10
38.268288
 20
51.724058
 30
0.0
 10
37.188288
 20
51.724058
 30
0.0
 10
37.188288
 20
58.204058
 30
0.0
 10
37.188288
 20
58.204058
 30
0.0
  0
LWPOLYLINE
  5
117
100
AcDbEntity
  8
Layer_1
 62
7
100
AcDbPolyline
 90
6
 70
0
 10
35.328288
 20
58.204058
 30
0.0
 10
36.408288
 20
58.204058
 30
0.0
 10
36.408288
 20
51.724058
 30
0.0
 10
35.328288
 20
51.724058
 30
0.0
 10
35.328288
 20
58.204058
 30
0.0
 10
35.328288
 20
58.204058
 30
0.0
  0
LWPOLYLINE
  5
118
100
AcDbEntity
  8
Layer_1
 62
7
100
AcDbPolyline
 90
6
 70
0
 10
33.528288
 20
58.204058
 30
0.0
 10
34.608288
 20
58.204058
 30
0.0
 10
34.608288
 20
51.724058
 30
0.0
 10
33.528288
 20
51.724058
 30
0.0
 10
33.528288
 20
58.204058
 30
0.0
 10
33.528288
 20
58.204058
 30
0.0
  0
LWPOLYLINE
  5
119
100
AcDbEntity
  8
Layer_1
 62
7
100
AcDbPolyline
 90
6
 70
0
 10
29.808288
 20
58.204058
 30
0.0
 10
30.888288
 20
58.204058
 30
0.0
 10
30.888288
 20
51.724058
 30
0.0
 10
29.808288
 20
51.724058
 30
0.0
 10
29.808288
 20
58.204058
 30
0.0
 10
29.808288
 20
58.204058
 30
0.0
  0
LWPOLYLINE
  5
11a
100
AcDbEntity
  8
Layer_1
 62
7
100
AcDbPolyline
 90
6
 70
0
 10
42.528288
 20
65.764058
 30
0.0
 10
47.928288
 20
65.764058
 30
0.0
 10
47.928288
 20
60.364058
 30
0.0
 10
42.528288
 20
60.364058
 30
0.0
 10
42.528288
 20
65.764058
 30
0.0
 10
42.528288
 20
65.764058
 30
0.0
  0
LWPOLYLINE
  5
11b
100
AcDbEntity
  8
Layer_1
 62
7
100
AcDbPolyline
 90
6
 70
0
 10
20.208288
 20
65.764058
 30
0.0
 10
25.608288
 20
65.764058
 30
0.0
 10
25.608288
 20
60.364058
 30
0.0
 10
20.208288
 20
60.364058
 30
0.0
 10
20.208288
 20
65.764058
 30
0.0
 10
20.208288
 20
65.764058
 30
0.0
  0
LWPOLYLINE
  5
11c
100
AcDbEntity
  8
Layer_1
 62
7
100
AcDbPolyline
 90
6
 70
0
 10
34.728288
 20
65.764058
 30
0.0
 10
40.128288
 20
65.764058
 30
0.0
 10
40.128288
 20
60.364058
 30
0.0
 10
34.728288
 20
60.364058
 30
0.0
 10
34.728288
 20
65.764058
 30
0.0
 10
34.728288
 20
65.764058
 30
0.0
  0
LWPOLYLINE
  5
11d
100
AcDbEntity
  8
Layer_1
 62
7
100
AcDbPolyline
 90
6
 70
0
 10
27.948288
 20
65.764058
 30
0.0
 10
33.348288
 20
65.764058
 30
0.0
 10
33.348288
 20
60.364058
 30
0.0
 10
27.948288
 20
60.364058
 30
0.0
 10
27.948288
 20
65.764058
 30
0.0
 10
27.948288
 20
65.764058
 30
0.0
  0
LWPOLYLINE
  5
11e
100
AcDbEntity
  8
Layer_1
 62
7
100
AcDbPolyline
 90
6
 70
0
 10
31.668288
 20
58.204058
 30
0.0
 10
32.748288
 20
58.204058
 30
0.0
 10
32.748288
 20
51.724058
 30
0.0
 10
31.668288
 20
51.724058
 30
0.0
 10
31.668288
 20
58.204058
 30
0.0
 10
31.668288
 20
58.204058
 30
0.0
  0
LWPOLYLINE
  5
11f
100
AcDbEntity
  8
Layer_1
 62
7
100
AcDbPolyline
 90
6
 70
0
 10
34.188288
 20
23.104058
 30
0.0
 10
38.628288
 20
23.104058
 30
0.0
 10
38.628288
 20
21.544058
 30
0.0
 10
34.188288
 20
21.544058
 30
0.0
 10
34.188288
 20
23.104058
 30
0.0
 10
34.188288
 20
23.104058
 30
0.0
  0
LWPOLYLINE
  5
120
100
AcDbEntity
  8
Layer_1
 62
7
100
AcDbPolyline
 90
6
 70
0
 10
34.188288
 20
26.704058
 30
0.0
 10
38.628288
 20
26.704058
 30
0.0
 10
38.628288
 20
25.144058
 30
0.0
 10
34.188288
 20
25.144058
 30
0.0
 10
34.188288
 20
26.704058
 30
0.0
 10
34.188288
 20
26.704058
 30
0.0
  0
LWPOLYLINE
  5
121
100
AcDbEntity
  8
Layer_1
 62
7
100
AcDbPolyline
 90
6
 70
0
 10
34.188288
 20
30.304058
 30
0.0
 10
38.628288
 20
30.304058
 30
0.0
 10
38.628288
 20
28.744058
 30
0.0
 10
34.188288
 20
28.744058
 30
0.0
 10
34.188288
 20
30.304058
 30
0.0
 10
34.188288
 20
30.304058
 30
0.0
  0
LWPOLYLINE
  5
122
100
AcDbEntity
  8
Layer_1
 62
7
100
AcDbPolyline
 90
6
 70
0
 10
34.188288
 20
33.904058
 30
0.0
 10
38.628288
 20
33.904058
 30
0.0
 10
38.628288
 20
32.344058
 30
0.0
 10
34.188288
 20
32.344058
 30
0.0
 10
34.188288
 20
33.904058
 30
0.0
 10
34.188288
 20
33.904058
 30
0.0
  0
LWPOLYLINE
  5
123
100
AcDbEntity
  8
Layer_1
 62
7
100
AcDbPolyline
 90
6
 70
0
 10
13.188288
 20
33.904058
 30
0.0
 10
17.628288
 20
33.904058
 30
0.0
 10
17.628288
 20
32.344058
 30
0.0
 10
13.188288
 20
32.344058
 30
0.0
 10
13.188288
 20
33.904058
 30
0.0
 10
13.188288
 20
33.904058
 30
0.0
  0
LWPOLYLINE
  5
124
100
AcDbEntity
  8
Layer_1
 62
7
100
AcDbPolyline
 90
6
 70
0
 10
13.188288
 20
30.304058
 30
0.0
 10
17.628288
 20
30.304058
 30
0.0
 10
17.628288
 20
28.744058
 30
0.0
 10
13.188288
 20
28.744058
 30
0.0
 10
13.188288
 20
30.304058
 30
0.0
 10
13.188288
 20
30.304058
 30
0.0
  0
LWPOLYLINE
  5
125
100
AcDbEntity
  8
Layer_1
 62
7
100
AcDbPolyline
 90
6
 70
0
 10
13.188288
 20
26.704058
 30
0.0
 10
17.628288
 20
26.704058
 30
0.0
 10
17.628288
 20
25.144058
 30
0.0
 10
13.188288
 20
25.144058
 30
0.0
 10
13.188288
 20
26.704058
 30
0.0
 10
13.188288
 20
26.704058
 30
0.0
  0
LWPOLYLINE
  5
126
100
AcDbEntity
  8
Layer_1
 62
7
100
AcDbPolyline
 90
6
 70
0
 10
13.188288
 20
23.104058
 30
0.0
 10
17.628288
 20
23.104058
 30
0.0
 10
17.628288
 20
21.544058
 30
0.0
 10
13.188288
 20
21.544058
 30
0.0
 10
13.188288
 20
23.104058
 30
0.0
 10
13.188288
 20
23.104058
 30
0.0
  0
LWPOLYLINE
  5
127
100
AcDbEntity
  8
Layer_1
 62
7
100
AcDbPolyline
 90
6
 70
0
 10
41.808288
 20
33.184058
 30
0.0
 10
47.448288
 20
33.184058
 30
0.0
 10
47.448288
 20
28.984058
 30
0.0
 10
41.808288
 20
28.984058
 30
0.0
 10
41.808288
 20
33.184058
 30
0.0
 10
41.808288
 20
33.184058
 30
0.0
  0
LWPOLYLINE
  5
128
100
AcDbEntity
  8
Layer_1
 62
7
100
AcDbPolyline
 90
6
 70
0
 10
41.808288
 20
26.704058
 30
0.0
 10
47.448288
 20
26.704058
 30
0.0
 10
47.448288
 20
22.504058
 30
0.0
 10
41.808288
 20
22.504058
 30
0.0
 10
41.808288
 20
26.704058
 30
0.0
 10
41.808288
 20
26.704058
 30
0.0
  0
LWPOLYLINE
  5
129
100
AcDbEntity
  8
Layer_1
 62
7
100
AcDbPolyline
 90
6
 70
0
 10
41.808288
 20
20.164058
 30
0.0
 10
47.448288
 20
20.164058
 30
0.0
 10
47.448288
 20
15.964058
 30
0.0
 10
41.808288
 20
15.964058
 30
0.0
 10
41.808288
 20
20.164058
 30
0.0
 10
41.808288
 20
20.164058
 30
0.0
  0
LWPOLYLINE
  5
12a
100
AcDbEntity
  8
Layer_1
 62
7
100
AcDbPolyline
 90
6
 70
0
 10
59.628288
 20
30.004058
 30
0.0
 10
65.268288
 20
30.004058
 30
0.0
 10
65.268288
 20
19.204058
 30
0.0
 10
59.628288
 20
19.204058
 30
0.0
 10
59.628288
 20
30.004058
 30
0.0
 10
59.628288
 20
30.004058
 30
0.0
  0
SPLINE
  5
12b
100
AcDbEntity
  8
holes
 62
1
100
AcDbSpline
 70
0
 71
3
 72
19
 73
15
 74
13
 40
0.000000
 40
0.000000
 40
0.000000
 40
0.000000
 40
1.766118
 40
3.479853
 40
5.245971
 40
7.012090
 40
8.725824
 40
10.491943
 40
12.258061
 40
13.971796
 40
15.737914
 40
17.504032
 40
19.217767
 40
20.983885
 40
20.983885
 40
20.983885
 40
20.983885
 10
13.880354
 20
60.781209
 30
0.0
 10
13.787516
 20
60.185757
 30
0.0
 10
13.604593
 20
59.012514
 30
0.0
 10
12.259831
 20
57.720869
 30
0.0
 10
10.505647
 20
57.242277
 30
0.0
 10
8.733045
 20
57.720869
 30
0.0
 10
7.442442
 20
59.012514
 30
0.0
 10
6.963496
 20
60.781209
 30
0.0
 10
7.442442
 20
62.549904
 30
0.0
 10
8.733045
 20
63.841548
 30
0.0
 10
10.505647
 20
64.320140
 30
0.0
 10
12.259831
 20
63.841548
 30
0.0
 10
13.604593
 20
62.549904
 30
0.0
 10
13.787516
 20
61.376661
 30
0.0
 10
13.880354
 20
60.781209
 30
0.0
 11
13.880354
 21
60.781209
 31
0.0
 11
13.419185
 21
59.076364
 31
0.0
 11
12.207391
 21
57.864570
 31
0.0
 11
10.502546
 21
57.403401
 31
0.0
 11
8.797701
 21
57.864570
 31
0.0
 11
7.585908
 21
59.076364
 31
0.0
 11
7.124738
 21
60.781209
 31
0.0
 11
7.585908
 21
62.486054
 31
0.0
 11
8.797701
 21
63.697847
 31
0.0
 11
10.502546
 21
64.159017
 31
0.0
 11
12.207391
 21
63.697847
 31
0.0
 11
13.419185
 21
62.486054
 31
0.0
 11
13.880354
 21
60.781209
 31
0.0
  0
LWPOLYLINE
  5
12c
100
AcDbEntity
  8
holes
 62
1
100
AcDbPolyline
 90
2
 70
0
 10
13.880354
 20
60.781209
 30
0.0
 10
13.880354
 20
60.781209
 30
0.0
  0
SPLINE
  5
12d
100
AcDbEntity
  8
holes
 62
1
100
AcDbSpline
 70
0
 71
3
 72
19
 73
15
 74
13
 40
0.000000
 40
0.000000
 40
0.000000
 40
0.000000
 40
1.755825
 40
3.459571
 40
5.215396
 40
6.971221
 40
8.674967
 40
10.430792
 40
12.186617
 40
13.890363
 40
15.646188
 40
17.402013
 40
19.105759
 40
20.861584
 40
20.861584
 40
20.861584
 40
20.861584
 10
64.140667
 20
60.781209
 30
0.0
 10
64.048370
 20
60.189227
 30
0.0
 10
63.866513
 20
59.022823
 30
0.0
 10
62.529589
 20
57.738706
 30
0.0
 10
60.785629
 20
57.262904
 30
0.0
 10
59.023358
 20
57.738706
 30
0.0
 10
57.740277
 20
59.022823
 30
0.0
 10
57.264123
 20
60.781209
 30
0.0
 10
57.740277
 20
62.539595
 30
0.0
 10
59.023358
 20
63.823712
 30
0.0
 10
60.785629
 20
64.299514
 30
0.0
 10
62.529589
 20
63.823712
 30
0.0
 10
63.866513
 20
62.539595
 30
0.0
 10
64.048370
 20
61.373190
 30
0.0
 10
64.140667
 20
60.781209
 30
0.0
 11
64.140667
 21
60.781209
 31
0.0
 11
63.682186
 21
59.086300
 31
0.0
 11
62.477455
 21
57.881570
 31
0.0
 11
60.782546
 21
57.423088
 31
0.0
 11
59.087638
 21
57.881570
 31
0.0
 11
57.882907
 21
59.086300
 31
0.0
 11
57.424426
 21
60.781209
 31
0.0
 11
57.882907
 21
62.476117
 31
0.0
 11
59.087638
 21
63.680848
 31
0.0
 11
60.782546
 21
64.139330
 31
0.0
 11
62.477455
 21
63.680848
 31
0.0
 11
63.682186
 21
62.476117
 31
0.0
 11
64.140667
 21
60.781209
 31
0.0
  0
LWPOLYLINE
  5
12e
100
AcDbEntity
  8
holes
 62
1
100
AcDbPolyline
 90
2
 70
0
 10
64.140667
 20
60.781209
 30
0.0
 10
64.140667
 20
60.781209
 30
0.0
  0
ENDSEC
  0
SECTION
  2
OBJECTS
  0
DICTIONARY
  5
C
330
0
100
AcDbDictionary
  3
ACAD_GROUP
350
D
  3
ACAD_MLINESTYLE
350
17
  0
DICTIONARY
  5
D
330
C
100
AcDbDictionary
  0
DICTIONARY
  5
1A
330
C
100
AcDbDictionary
  0
DICTIONARY
  5
17
330
C
100
AcDbDictionary
  3
STANDARD
350
18
  0
DICTIONARY
  5
19
330
C
100
AcDbDictionary
  0
ENDSEC
  0
EOF
