  0
SECTION
  2
HEADER
  9
$ACADVER
  1
AC1014
  9
$HANDSEED
  5
FFFF
  9
$MEASUREMENT
 70
     1
  0
ENDSEC
  0
SECTION
  2
TABLES
  0
TABLE
  2
VPORT
  5
8
330
0
100
AcDbSymbolTable
 70
     4
  0
VPORT
  5
2E
330
8
100
AcDbSymbolTableRecord
100
AcDbViewportTableRecord
  2
*ACTIVE
 70
     0
 10
0.0
 20
0.0
 11
1.0
 21
1.0
 12
210.0
 22
148.5
 13
0.0
 23
0.0
 14
10.0
 24
10.0
 15
10.0
 25
10.0
 16
0.0
 26
0.0
 36
1.0
 17
0.0
 27
0.0
 37
0.0
 40
341.0
 41
1.24
 42
50.0
 43
0.0
 44
0.0
 50
0.0
 51
0.0
 71
     0
 72
   100
 73
     1
 74
     3
 75
     0
 76
     0
 77
     0
 78
     0
  0
ENDTAB
  0
TABLE
  2
LTYPE
  5
5
330
0
100
AcDbSymbolTable
 70
     1
  0
LTYPE
  5
14
330
5
100
AcDbSymbolTableRecord
100
AcDbLinetypeTableRecord
  2
BYBLOCK
 70
     0
  3

 72
    65
 73
     0
 40
0.0
  0
LTYPE
  5
15
330
5
100
AcDbSymbolTableRecord
100
AcDbLinetypeTableRecord
  2
BYLAYER
 70
     0
  3

 72
    65
 73
     0
 40
0.0
  0
LTYPE
  5
16
330
5
100
AcDbSymbolTableRecord
100
AcDbLinetypeTableRecord
  2
CONTINUOUS
 70
     0
  3
Solid line
 72
    65
 73
     0
 40
0.0
  0
ENDTAB
  0
TABLE
  2
LAYER
  5
2
100
AcDbSymbolTable
 70
1
  0
LAYER
  5
50
100
AcDbSymbolTableRecord
100
AcDbLayerTableRecord
  2
0
 70
0
  6
CONTINUOUS
  0
ENDTAB
  0
TABLE
  2
STYLE
  5
3
330
0
100
AcDbSymbolTable
 70
     1
  0
STYLE
  5
11
330
3
100
AcDbSymbolTableRecord
100
AcDbTextStyleTableRecord
  2
STANDARD
 70
     0
 40
0.0
 41
1.0
 50
0.0
 71
     0
 42
2.5
  3
txt
  4

  0
ENDTAB
  0
TABLE
  2
VIEW
  5
6
330
0
100
AcDbSymbolTable
 70
     0
  0
ENDTAB
  0
TABLE
  2
UCS
  5
7
330
0
100
AcDbSymbolTable
 70
     0
  0
ENDTAB
  0
TABLE
  2
APPID
  5
9
330
0
100
AcDbSymbolTable
 70
     2
  0
APPID
  5
12
330
9
100
AcDbSymbolTableRecord
100
AcDbRegAppTableRecord
  2
ACAD
 70
     0
  0
ENDTAB
  0
TABLE
  2
DIMSTYLE
  5
A
330
0
100
AcDbSymbolTable
 70
     1
  0
DIMSTYLE
105
27
330
A
100
AcDbSymbolTableRecord
100
AcDbDimStyleTableRecord
  2
ISO-25
 70
     0
  3

  4

  5

  6

  7

 40
1.0
 41
2.5
 42
0.625
 43
3.75
 44
1.25
 45
0.0
 46
0.0
 47
0.0
 48
0.0
140
2.5
141
2.5
142
0.0
143
0.03937007874016
144
1.0
145
0.0
146
1.0
147
0.625
 71
     0
 72
     0
 73
     0
 74
     0
 75
     0
 76
     0
 77
     1
 78
     8
170
     0
171
     3
172
     1
173
     0
174
     0
175
     0
176
     0
177
     0
178
     0
270
     2
271
     2
272
     2
273
     2
274
     3
340
11
275
     0
280
     0
281
     0
282
     0
283
     0
284
     8
285
     0
286
     0
287
     3
288
     0
  0
ENDTAB
  0
TABLE
  2
BLOCK_RECORD
  5
1
330
0
100
AcDbSymbolTable
 70
     1
  0
BLOCK_RECORD
  5
1F
330
1
100
AcDbSymbolTableRecord
100
AcDbBlockTableRecord
  2
*MODEL_SPACE
  0
BLOCK_RECORD
  5
1B
330
1
100
AcDbSymbolTableRecord
100
AcDbBlockTableRecord
  2
*PAPER_SPACE
  0
ENDTAB
  0
ENDSEC
  0
SECTION
  2
BLOCKS
  0
BLOCK
  5
20
330
1F
100
AcDbEntity
  8
0
100
AcDbBlockBegin
  2
*MODEL_SPACE
 70
     0
 10
0.0
 20
0.0
 30
0.0
  3
*MODEL_SPACE
  1

  0
ENDBLK
  5
21
330
1F
100
AcDbEntity
  8
0
100
AcDbBlockEnd
  0
BLOCK
  5
1C
330
1B
100
AcDbEntity
 67
     1
  8
0
100
AcDbBlockBegin
  2
*PAPER_SPACE
  1

  0
ENDBLK
  5
1D
330
1B
100
AcDbEntity
 67
     1
  8
0
100
AcDbBlockEnd
  0
ENDSEC
  0
SECTION
  2
ENTITIES
  0
LWPOLYLINE
  5
100
100
AcDbEntity
  8
0
 62
7
100
AcDbPolyline
 90
5
 70
0
 10
0.115624
 20
16.112500
 30
0.0
 10
64.809374
 20
16.112500
 30
0.0
 10
64.809374
 20
80.896875
 30
0.0
 10
0.115624
 20
80.896875
 30
0.0
 10
0.115624
 20
16.112500
 30
0.0
  0
LWPOLYLINE
  5
101
100
AcDbEntity
  8
0
 62
7
100
AcDbPolyline
 90
5
 70
0
 10
31.668750
 20
37.687501
 30
0.0
 10
37.937500
 20
37.687501
 30
0.0
 10
37.937500
 20
35.946874
 30
0.0
 10
31.668750
 20
35.946874
 30
0.0
 10
31.668750
 20
37.687501
 30
0.0
  0
LWPOLYLINE
  5
102
100
AcDbEntity
  8
0
 62
7
100
AcDbPolyline
 90
5
 70
0
 10
31.668750
 20
41.287501
 30
0.0
 10
37.937500
 20
41.287501
 30
0.0
 10
37.937500
 20
39.546874
 30
0.0
 10
31.668750
 20
39.546874
 30
0.0
 10
31.668750
 20
41.287501
 30
0.0
  0
LWPOLYLINE
  5
103
100
AcDbEntity
  8
0
 62
7
100
AcDbPolyline
 90
5
 70
0
 10
31.668750
 20
44.887501
 30
0.0
 10
37.937500
 20
44.887501
 30
0.0
 10
37.937500
 20
43.146874
 30
0.0
 10
31.668750
 20
43.146874
 30
0.0
 10
31.668750
 20
44.887501
 30
0.0
  0
LWPOLYLINE
  5
104
100
AcDbEntity
  8
0
 62
7
100
AcDbPolyline
 90
5
 70
0
 10
31.668750
 20
48.487500
 30
0.0
 10
37.937500
 20
48.487500
 30
0.0
 10
37.937500
 20
46.746874
 30
0.0
 10
31.668750
 20
46.746874
 30
0.0
 10
31.668750
 20
48.487500
 30
0.0
  0
LWPOLYLINE
  5
105
100
AcDbEntity
  8
0
 62
7
100
AcDbPolyline
 90
5
 70
0
 10
12.587500
 20
48.487500
 30
0.0
 10
18.859374
 20
48.487500
 30
0.0
 10
18.859374
 20
46.746874
 30
0.0
 10
12.587500
 20
46.746874
 30
0.0
 10
12.587500
 20
48.487500
 30
0.0
  0
LWPOLYLINE
  5
106
100
AcDbEntity
  8
0
 62
7
100
AcDbPolyline
 90
5
 70
0
 10
12.587500
 20
44.887501
 30
0.0
 10
18.859374
 20
44.887501
 30
0.0
 10
18.859374
 20
43.146874
 30
0.0
 10
12.587500
 20
43.146874
 30
0.0
 10
12.587500
 20
44.887501
 30
0.0
  0
LWPOLYLINE
  5
107
100
AcDbEntity
  8
0
 62
7
100
AcDbPolyline
 90
5
 70
0
 10
12.587500
 20
41.287501
 30
0.0
 10
18.859374
 20
41.287501
 30
0.0
 10
18.859374
 20
39.546874
 30
0.0
 10
12.587500
 20
39.546874
 30
0.0
 10
12.587500
 20
41.287501
 30
0.0
  0
LWPOLYLINE
  5
108
100
AcDbEntity
  8
0
 62
7
100
AcDbPolyline
 90
5
 70
0
 10
12.587500
 20
37.687501
 30
0.0
 10
18.859374
 20
37.687501
 30
0.0
 10
18.859374
 20
35.946874
 30
0.0
 10
12.587500
 20
35.946874
 30
0.0
 10
12.587500
 20
37.687501
 30
0.0
  0
LWPOLYLINE
  5
109
100
AcDbEntity
  8
0
 62
7
100
AcDbPolyline
 90
5
 70
0
 10
31.562500
 20
60.440625
 30
0.0
 10
34.953125
 20
60.440625
 30
0.0
 10
34.953125
 20
58.162500
 30
0.0
 10
31.562500
 20
58.162500
 30
0.0
 10
31.562500
 20
60.440625
 30
0.0
  0
LWPOLYLINE
  5
10a
100
AcDbEntity
  8
0
 62
7
100
AcDbPolyline
 90
5
 70
0
 10
31.562500
 20
55.340625
 30
0.0
 10
34.953125
 20
55.340625
 30
0.0
 10
34.953125
 20
53.062500
 30
0.0
 10
31.562500
 20
53.062500
 30
0.0
 10
31.562500
 20
55.340625
 30
0.0
  0
LWPOLYLINE
  5
10b
100
AcDbEntity
  8
0
 62
7
100
AcDbPolyline
 90
5
 70
0
 10
14.296874
 20
60.803125
 30
0.0
 10
17.687500
 20
60.803125
 30
0.0
 10
17.687500
 20
58.521874
 30
0.0
 10
14.296874
 20
58.521874
 30
0.0
 10
14.296874
 20
60.803125
 30
0.0
  0
LWPOLYLINE
  5
10c
100
AcDbEntity
  8
0
 62
7
100
AcDbPolyline
 90
5
 70
0
 10
14.296874
 20
55.703125
 30
0.0
 10
17.687500
 20
55.703125
 30
0.0
 10
17.687500
 20
53.421874
 30
0.0
 10
14.296874
 20
53.421874
 30
0.0
 10
14.296874
 20
55.703125
 30
0.0
  0
LWPOLYLINE
  5
10d
100
AcDbEntity
  8
0
 62
7
100
AcDbPolyline
 90
5
 70
0
 10
37.321874
 20
55.340625
 30
0.0
 10
40.712500
 20
55.340625
 30
0.0
 10
40.712500
 20
53.062500
 30
0.0
 10
37.321874
 20
53.062500
 30
0.0
 10
37.321874
 20
55.340625
 30
0.0
  0
LWPOLYLINE
  5
10e
100
AcDbEntity
  8
0
 62
7
100
AcDbPolyline
 90
5
 70
0
 10
37.321874
 20
60.440625
 30
0.0
 10
40.712500
 20
60.440625
 30
0.0
 10
40.712500
 20
58.162500
 30
0.0
 10
37.321874
 20
58.162500
 30
0.0
 10
37.321874
 20
60.440625
 30
0.0
  0
LWPOLYLINE
  5
10f
100
AcDbEntity
  8
0
 62
7
100
AcDbPolyline
 90
5
 70
0
 10
44.343750
 20
56.678125
 30
0.0
 10
47.371874
 20
56.678125
 30
0.0
 10
47.371874
 20
50.496874
 30
0.0
 10
44.343750
 20
50.496874
 30
0.0
 10
44.343750
 20
56.678125
 30
0.0
  0
LWPOLYLINE
  5
110
100
AcDbEntity
  8
0
 62
7
100
AcDbPolyline
 90
5
 70
0
 10
44.343750
 20
68.915625
 30
0.0
 10
47.371874
 20
68.915625
 30
0.0
 10
47.371874
 20
62.737501
 30
0.0
 10
44.343750
 20
62.737501
 30
0.0
 10
44.343750
 20
68.915625
 30
0.0
  0
LWPOLYLINE
  5
111
100
AcDbEntity
  8
0
 62
7
100
AcDbPolyline
 90
5
 70
0
 10
18.559374
 20
33.515624
 30
0.0
 10
20.837500
 20
33.515624
 30
0.0
 10
20.837500
 20
30.128124
 30
0.0
 10
18.559374
 20
30.128124
 30
0.0
 10
18.559374
 20
33.515624
 30
0.0
  0
LWPOLYLINE
  5
112
100
AcDbEntity
  8
0
 62
7
100
AcDbPolyline
 90
5
 70
0
 10
13.459374
 20
33.515624
 30
0.0
 10
15.737500
 20
33.515624
 30
0.0
 10
15.737500
 20
30.128124
 30
0.0
 10
13.459374
 20
30.128124
 30
0.0
 10
13.459374
 20
33.515624
 30
0.0
  0
LWPOLYLINE
  5
113
100
AcDbEntity
  8
0
 62
7
100
AcDbPolyline
 90
5
 70
0
 10
20.478125
 20
55.478125
 30
0.0
 10
23.868750
 20
55.478125
 30
0.0
 10
23.868750
 20
52.087501
 30
0.0
 10
20.478125
 20
52.087501
 30
0.0
 10
20.478125
 20
55.478125
 30
0.0
  0
LWPOLYLINE
  5
114
100
AcDbEntity
  8
0
 62
7
100
AcDbPolyline
 90
5
 70
0
 10
20.478125
 20
61.415625
 30
0.0
 10
23.868750
 20
61.415625
 30
0.0
 10
23.868750
 20
58.028125
 30
0.0
 10
20.478125
 20
58.028125
 30
0.0
 10
20.478125
 20
61.415625
 30
0.0
  0
LWPOLYLINE
  5
115
100
AcDbEntity
  8
0
 62
7
100
AcDbPolyline
 90
5
 70
0
 10
25.803125
 20
55.403125
 30
0.0
 10
29.193750
 20
55.403125
 30
0.0
 10
29.193750
 20
52.012501
 30
0.0
 10
25.803125
 20
52.012501
 30
0.0
 10
25.803125
 20
55.403125
 30
0.0
  0
LWPOLYLINE
  5
116
100
AcDbEntity
  8
0
 62
7
100
AcDbPolyline
 90
5
 70
0
 10
25.803125
 20
61.356250
 30
0.0
 10
29.193750
 20
61.356250
 30
0.0
 10
29.193750
 20
57.965624
 30
0.0
 10
25.803125
 20
57.965624
 30
0.0
 10
25.803125
 20
61.356250
 30
0.0
  0
LWPOLYLINE
  5
117
100
AcDbEntity
  8
0
 62
7
100
AcDbPolyline
 90
5
 70
0
 10
49.159374
 20
49.265625
 30
0.0
 10
51.437500
 20
49.265625
 30
0.0
 10
51.437500
 20
45.878125
 30
0.0
 10
49.159374
 20
45.878125
 30
0.0
 10
49.159374
 20
49.265625
 30
0.0
  0
LWPOLYLINE
  5
118
100
AcDbEntity
  8
0
 62
7
100
AcDbPolyline
 90
5
 70
0
 10
44.059374
 20
49.265625
 30
0.0
 10
46.337500
 20
49.265625
 30
0.0
 10
46.337500
 20
45.878125
 30
0.0
 10
44.059374
 20
45.878125
 30
0.0
 10
44.059374
 20
49.265625
 30
0.0
  0
LWPOLYLINE
  5
119
100
AcDbEntity
  8
0
 62
7
100
AcDbPolyline
 90
5
 70
0
 10
54.346874
 20
64.431250
 30
0.0
 10
57.737500
 20
64.431250
 30
0.0
 10
57.737500
 20
61.040624
 30
0.0
 10
54.346874
 20
61.040624
 30
0.0
 10
54.346874
 20
64.431250
 30
0.0
  0
LWPOLYLINE
  5
11a
100
AcDbEntity
  8
0
 62
7
100
AcDbPolyline
 90
5
 70
0
 10
60.303124
 20
64.431250
 30
0.0
 10
63.693750
 20
64.431250
 30
0.0
 10
63.693750
 20
61.040624
 30
0.0
 10
60.303124
 20
61.040624
 30
0.0
 10
60.303124
 20
64.431250
 30
0.0
  0
LWPOLYLINE
  5
11b
100
AcDbEntity
  8
0
 62
7
100
AcDbPolyline
 90
5
 70
0
 10
50.012500
 20
58.253125
 30
0.0
 10
53.403125
 20
58.253125
 30
0.0
 10
53.403125
 20
55.971874
 30
0.0
 10
50.012500
 20
55.971874
 30
0.0
 10
50.012500
 20
58.253125
 30
0.0
  0
LWPOLYLINE
  5
11c
100
AcDbEntity
  8
0
 62
7
100
AcDbPolyline
 90
5
 70
0
 10
50.012500
 20
53.153125
 30
0.0
 10
53.403125
 20
53.153125
 30
0.0
 10
53.403125
 20
50.871874
 30
0.0
 10
50.012500
 20
50.871874
 30
0.0
 10
50.012500
 20
53.153125
 30
0.0
  0
LWPOLYLINE
  5
11d
100
AcDbEntity
  8
0
 62
7
100
AcDbPolyline
 90
5
 70
0
 10
48.559374
 20
38.346874
 30
0.0
 10
51.946874
 20
38.346874
 30
0.0
 10
51.946874
 20
36.787500
 30
0.0
 10
48.559374
 20
36.787500
 30
0.0
 10
48.559374
 20
38.346874
 30
0.0
  0
LWPOLYLINE
  5
11e
100
AcDbEntity
  8
0
 62
7
100
AcDbPolyline
 90
5
 70
0
 10
48.559374
 20
41.046874
 30
0.0
 10
51.946874
 20
41.046874
 30
0.0
 10
51.946874
 20
39.487500
 30
0.0
 10
48.559374
 20
39.487500
 30
0.0
 10
48.559374
 20
41.046874
 30
0.0
  0
LWPOLYLINE
  5
11f
100
AcDbEntity
  8
0
 62
7
100
AcDbPolyline
 90
5
 70
0
 10
48.559374
 20
43.731250
 30
0.0
 10
51.946874
 20
43.731250
 30
0.0
 10
51.946874
 20
42.171874
 30
0.0
 10
48.559374
 20
42.171874
 30
0.0
 10
48.559374
 20
43.731250
 30
0.0
  0
LWPOLYLINE
  5
120
100
AcDbEntity
  8
0
 62
7
100
AcDbPolyline
 90
5
 70
0
 10
41.193750
 20
43.731250
 30
0.0
 10
44.584374
 20
43.731250
 30
0.0
 10
44.584374
 20
42.171874
 30
0.0
 10
41.193750
 20
42.171874
 30
0.0
 10
41.193750
 20
43.731250
 30
0.0
  0
LWPOLYLINE
  5
121
100
AcDbEntity
  8
0
 62
7
100
AcDbPolyline
 90
5
 70
0
 10
41.193750
 20
38.346874
 30
0.0
 10
44.584374
 20
38.346874
 30
0.0
 10
44.584374
 20
36.787500
 30
0.0
 10
41.193750
 20
36.787500
 30
0.0
 10
41.193750
 20
38.346874
 30
0.0
  0
LWPOLYLINE
  5
122
100
AcDbEntity
  8
0
 62
7
100
AcDbPolyline
 90
5
 70
0
 10
37.562500
 20
23.465625
 30
0.0
 10
44.071874
 20
23.465625
 30
0.0
 10
44.071874
 20
18.937500
 30
0.0
 10
37.562500
 20
18.937500
 30
0.0
 10
37.562500
 20
23.465625
 30
0.0
  0
LWPOLYLINE
  5
123
100
AcDbEntity
  8
0
 62
7
100
AcDbPolyline
 90
5
 70
0
 10
19.712500
 20
23.465625
 30
0.0
 10
26.221874
 20
23.465625
 30
0.0
 10
26.221874
 20
18.937500
 30
0.0
 10
19.712500
 20
18.937500
 30
0.0
 10
19.712500
 20
23.465625
 30
0.0
  0
LWPOLYLINE
  5
124
100
AcDbEntity
  8
0
 62
7
100
AcDbPolyline
 90
5
 70
0
 10
34.084374
 20
70.462500
 30
0.0
 10
35.221874
 20
70.462500
 30
0.0
 10
35.221874
 20
65.181250
 30
0.0
 10
34.084374
 20
65.181250
 30
0.0
 10
34.084374
 20
70.462500
 30
0.0
  0
LWPOLYLINE
  5
125
100
AcDbEntity
  8
0
 62
7
100
AcDbPolyline
 90
5
 70
0
 10
32.237500
 20
70.462500
 30
0.0
 10
33.378125
 20
70.462500
 30
0.0
 10
33.378125
 20
65.181250
 30
0.0
 10
32.237500
 20
65.181250
 30
0.0
 10
32.237500
 20
70.462500
 30
0.0
  0
LWPOLYLINE
  5
126
100
AcDbEntity
  8
0
 62
7
100
AcDbPolyline
 90
5
 70
0
 10
30.393750
 20
70.462500
 30
0.0
 10
31.534374
 20
70.462500
 30
0.0
 10
31.534374
 20
65.181250
 30
0.0
 10
30.393750
 20
65.181250
 30
0.0
 10
30.393750
 20
70.462500
 30
0.0
  0
LWPOLYLINE
  5
127
100
AcDbEntity
  8
0
 62
7
100
AcDbPolyline
 90
5
 70
0
 10
28.546874
 20
70.462500
 30
0.0
 10
29.687500
 20
70.462500
 30
0.0
 10
29.687500
 20
65.181250
 30
0.0
 10
28.546874
 20
65.181250
 30
0.0
 10
28.546874
 20
70.462500
 30
0.0
  0
LWPOLYLINE
  5
128
100
AcDbEntity
  8
0
 62
7
100
AcDbPolyline
 90
5
 70
0
 10
26.718750
 20
70.462500
 30
0.0
 10
27.859374
 20
70.462500
 30
0.0
 10
27.859374
 20
65.181250
 30
0.0
 10
26.718750
 20
65.181250
 30
0.0
 10
26.718750
 20
70.462500
 30
0.0
  0
LWPOLYLINE
  5
129
100
AcDbEntity
  8
0
 62
7
100
AcDbPolyline
 90
5
 70
0
 10
39.468750
 20
78.653125
 30
0.0
 10
44.837500
 20
78.653125
 30
0.0
 10
44.837500
 20
73.281250
 30
0.0
 10
39.468750
 20
73.281250
 30
0.0
 10
39.468750
 20
78.653125
 30
0.0
  0
LWPOLYLINE
  5
12a
100
AcDbEntity
  8
0
 62
7
100
AcDbPolyline
 90
5
 70
0
 10
17.087500
 20
78.653125
 30
0.0
 10
22.459374
 20
78.653125
 30
0.0
 10
22.459374
 20
73.281250
 30
0.0
 10
17.087500
 20
73.281250
 30
0.0
 10
17.087500
 20
78.653125
 30
0.0
  0
LWPOLYLINE
  5
12b
100
AcDbEntity
  8
0
 62
7
100
AcDbPolyline
 90
5
 70
0
 10
34.846874
 20
32.003124
 30
0.0
 10
41.028125
 20
32.003124
 30
0.0
 10
41.028125
 20
28.971874
 30
0.0
 10
34.846874
 20
28.971874
 30
0.0
 10
34.846874
 20
32.003124
 30
0.0
  0
LWPOLYLINE
  5
12c
100
AcDbEntity
  8
0
 62
7
100
AcDbPolyline
 90
5
 70
0
 10
47.087500
 20
32.003124
 30
0.0
 10
53.268750
 20
32.003124
 30
0.0
 10
53.268750
 20
28.971874
 30
0.0
 10
47.087500
 20
28.971874
 30
0.0
 10
47.087500
 20
32.003124
 30
0.0
  0
SPLINE
  5
12d
100
AcDbEntity
  8
0
 62
7
100
AcDbSpline
 70
0
 71
3
 72
19
 73
15
 74
13
 40
0.000000
 40
0.000000
 40
0.000000
 40
0.000000
 40
1.239161
 40
2.441652
 40
3.681384
 40
4.918993
 40
6.120911
 40
7.360041
 40
8.599172
 40
9.801090
 40
11.038699
 40
12.278431
 40
13.480922
 40
14.720084
 40
14.720084
 40
14.720084
 40
14.720084
 10
63.693750
 20
55.671874
 30
0.0
 10
63.628531
 20
55.254057
 30
0.0
 10
63.500021
 20
54.430786
 30
0.0
 10
62.555222
 20
53.525445
 30
0.0
 10
61.324741
 20
53.190224
 30
0.0
 10
60.081661
 20
53.525760
 30
0.0
 10
59.176242
 20
54.431082
 30
0.0
 10
58.839865
 20
55.671875
 30
0.0
 10
59.176242
 20
56.912667
 30
0.0
 10
60.081661
 20
57.817990
 30
0.0
 10
61.324741
 20
58.153526
 30
0.0
 10
62.555222
 20
57.818305
 30
0.0
 10
63.500021
 20
56.912964
 30
0.0
 10
63.628531
 20
56.089692
 30
0.0
 10
63.693750
 20
55.671874
 30
0.0
 11
63.693750
 21
55.671874
 31
0.0
 11
63.369792
 21
54.475810
 31
0.0
 11
62.518750
 21
53.626273
 31
0.0
 11
61.321874
 21
53.303125
 31
0.0
 11
60.127199
 21
53.626273
 31
0.0
 11
59.276967
 21
54.475810
 31
0.0
 11
58.953125
 21
55.671874
 31
0.0
 11
59.276967
 21
56.867940
 31
0.0
 11
60.127199
 21
57.717477
 31
0.0
 11
61.321874
 21
58.040625
 31
0.0
 11
62.518750
 21
57.717477
 31
0.0
 11
63.369792
 21
56.867940
 31
0.0
 11
63.693750
 21
55.671874
 31
0.0
  0
LWPOLYLINE
  5
12e
100
AcDbEntity
  8
0
 62
7
100
AcDbPolyline
 90
2
 70
0
 10
63.693750
 20
55.671874
 30
0.0
 10
63.693750
 20
55.671874
 30
0.0
  0
SPLINE
  5
12f
100
AcDbEntity
  8
0
 62
7
100
AcDbSpline
 70
0
 71
3
 72
19
 73
15
 74
13
 40
0.000000
 40
0.000000
 40
0.000000
 40
0.000000
 40
1.239160
 40
2.441652
 40
3.681384
 40
4.918993
 40
6.120911
 40
7.360041
 40
8.599172
 40
9.801090
 40
11.038698
 40
12.278430
 40
13.480922
 40
14.720083
 40
14.720083
 40
14.720083
 40
14.720083
 10
63.693750
 20
48.471874
 30
0.0
 10
63.628531
 20
48.054057
 30
0.0
 10
63.500021
 20
47.230786
 30
0.0
 10
62.555222
 20
46.325445
 30
0.0
 10
61.324741
 20
45.990224
 30
0.0
 10
60.081661
 20
46.325760
 30
0.0
 10
59.176242
 20
47.231083
 30
0.0
 10
58.839865
 20
48.471875
 30
0.0
 10
59.176242
 20
49.712667
 30
0.0
 10
60.081661
 20
50.617990
 30
0.0
 10
61.324741
 20
50.953526
 30
0.0
 10
62.555222
 20
50.618305
 30
0.0
 10
63.500021
 20
49.712964
 30
0.0
 10
63.628531
 20
48.889692
 30
0.0
 10
63.693750
 20
48.471874
 30
0.0
 11
63.693750
 21
48.471874
 31
0.0
 11
63.369792
 21
47.275810
 31
0.0
 11
62.518750
 21
46.426273
 31
0.0
 11
61.321874
 21
46.103125
 31
0.0
 11
60.127199
 21
46.426273
 31
0.0
 11
59.276967
 21
47.275810
 31
0.0
 11
58.953125
 21
48.471874
 31
0.0
 11
59.276967
 21
49.667940
 31
0.0
 11
60.127199
 21
50.517477
 31
0.0
 11
61.321874
 21
50.840625
 31
0.0
 11
62.518750
 21
50.517477
 31
0.0
 11
63.369792
 21
49.667940
 31
0.0
 11
63.693750
 21
48.471874
 31
0.0
  0
LWPOLYLINE
  5
130
100
AcDbEntity
  8
0
 62
7
100
AcDbPolyline
 90
2
 70
0
 10
63.693750
 20
48.471874
 30
0.0
 10
63.693750
 20
48.471874
 30
0.0
  0
SPLINE
  5
131
100
AcDbEntity
  8
0
 62
7
100
AcDbSpline
 70
0
 71
3
 72
19
 73
15
 74
13
 40
0.000000
 40
0.000000
 40
0.000000
 40
0.000000
 40
1.239943
 40
2.443498
 40
3.683442
 40
4.921262
 40
6.124244
 40
7.364157
 40
8.603287
 40
9.805206
 40
11.042814
 40
12.282546
 40
13.485038
 40
14.724199
 40
14.724199
 40
14.724199
 40
14.724199
 10
63.693750
 20
26.887500
 30
0.0
 10
63.628487
 20
26.469461
 30
0.0
 10
63.499875
 20
25.645652
 30
0.0
 10
62.555688
 20
24.738899
 30
0.0
 10
61.324742
 20
24.402280
 30
0.0
 10
60.081191
 20
24.739212
 30
0.0
 10
59.176425
 20
25.645958
 30
0.0
 10
58.839828
 20
26.887199
 30
0.0
 10
59.176233
 20
28.128302
 30
0.0
 10
60.081664
 20
29.033612
 30
0.0
 10
61.324741
 20
29.369152
 30
0.0
 10
62.555223
 20
29.033930
 30
0.0
 10
63.500021
 20
28.128589
 30
0.0
 10
63.628531
 20
27.305318
 30
0.0
 10
63.693750
 20
26.887500
 30
0.0
 11
63.693750
 21
26.887500
 31
0.0
 11
63.369792
 21
25.690625
 31
0.0
 11
62.518750
 21
24.839583
 31
0.0
 11
61.321874
 21
24.515625
 31
0.0
 11
60.127199
 21
24.839583
 31
0.0
 11
59.276967
 21
25.690625
 31
0.0
 11
58.953125
 21
26.887500
 31
0.0
 11
59.276967
 21
28.083565
 31
0.0
 11
60.127199
 21
28.933102
 31
0.0
 11
61.321874
 21
29.256250
 31
0.0
 11
62.518750
 21
28.933102
 31
0.0
 11
63.369792
 21
28.083565
 31
0.0
 11
63.693750
 21
26.887500
 31
0.0
  0
LWPOLYLINE
  5
132
100
AcDbEntity
  8
0
 62
7
100
AcDbPolyline
 90
2
 70
0
 10
63.693750
 20
26.887500
 30
0.0
 10
63.693750
 20
26.887500
 30
0.0
  0
SPLINE
  5
133
100
AcDbEntity
  8
0
 62
7
100
AcDbSpline
 70
0
 71
3
 72
19
 73
15
 74
13
 40
0.000000
 40
0.000000
 40
0.000000
 40
0.000000
 40
1.239943
 40
2.443498
 40
3.683442
 40
4.921262
 40
6.124244
 40
7.364157
 40
8.603287
 40
9.805206
 40
11.042814
 40
12.282546
 40
13.485038
 40
14.724199
 40
14.724199
 40
14.724199
 40
14.724199
 10
63.693750
 20
19.687500
 30
0.0
 10
63.628487
 20
19.269461
 30
0.0
 10
63.499875
 20
18.445652
 30
0.0
 10
62.555688
 20
17.538899
 30
0.0
 10
61.324742
 20
17.202280
 30
0.0
 10
60.081191
 20
17.539212
 30
0.0
 10
59.176425
 20
18.445958
 30
0.0
 10
58.839828
 20
19.687199
 30
0.0
 10
59.176233
 20
20.928302
 30
0.0
 10
60.081664
 20
21.833612
 30
0.0
 10
61.324741
 20
22.169152
 30
0.0
 10
62.555223
 20
21.833930
 30
0.0
 10
63.500021
 20
20.928589
 30
0.0
 10
63.628531
 20
20.105318
 30
0.0
 10
63.693750
 20
19.687500
 30
0.0
 11
63.693750
 21
19.687500
 31
0.0
 11
63.369792
 21
18.490625
 31
0.0
 11
62.518750
 21
17.639583
 31
0.0
 11
61.321874
 21
17.315625
 31
0.0
 11
60.127199
 21
17.639583
 31
0.0
 11
59.276967
 21
18.490625
 31
0.0
 11
58.953125
 21
19.687500
 31
0.0
 11
59.276967
 21
20.883565
 31
0.0
 11
60.127199
 21
21.733102
 31
0.0
 11
61.321874
 21
22.056250
 31
0.0
 11
62.518750
 21
21.733102
 31
0.0
 11
63.369792
 21
20.883565
 31
0.0
 11
63.693750
 21
19.687500
 31
0.0
  0
LWPOLYLINE
  5
134
100
AcDbEntity
  8
0
 62
7
100
AcDbPolyline
 90
2
 70
0
 10
63.693750
 20
19.687500
 30
0.0
 10
63.693750
 20
19.687500
 30
0.0
  0
SPLINE
  5
135
100
AcDbEntity
  8
0
 62
7
100
AcDbSpline
 70
0
 71
3
 72
19
 73
15
 74
13
 40
0.000000
 40
0.000000
 40
0.000000
 40
0.000000
 40
1.238949
 40
2.440376
 40
3.679326
 40
4.918275
 40
6.119701
 40
7.358651
 40
8.597601
 40
9.799028
 40
11.037977
 40
12.276927
 40
13.478353
 40
14.717303
 40
14.717303
 40
14.717303
 40
14.717303
 10
6.121874
 20
62.871874
 30
0.0
 10
6.056915
 20
62.454123
 30
0.0
 10
5.928962
 20
61.631272
 30
0.0
 10
4.985745
 20
60.725200
 30
0.0
 10
3.755294
 20
60.390380
 30
0.0
 10
2.511958
 20
60.725200
 30
0.0
 10
1.606614
 20
61.631272
 30
0.0
 10
1.271546
 20
62.871875
 30
0.0
 10
1.606614
 20
64.112477
 30
0.0
 10
2.511958
 20
65.018550
 30
0.0
 10
3.755294
 20
65.353369
 30
0.0
 10
4.985745
 20
65.018550
 30
0.0
 10
5.928962
 20
64.112477
 30
0.0
 10
6.056915
 20
63.289626
 30
0.0
 10
6.121874
 20
62.871874
 30
0.0
 11
6.121874
 21
62.871874
 31
0.0
 11
5.798726
 21
61.675810
 31
0.0
 11
4.949190
 21
60.826273
 31
0.0
 11
3.753124
 21
60.503125
 31
0.0
 11
2.557060
 21
60.826273
 31
0.0
 11
1.707523
 21
61.675810
 31
0.0
 11
1.384374
 21
62.871874
 31
0.0
 11
1.707523
 21
64.067940
 31
0.0
 11
2.557060
 21
64.917477
 31
0.0
 11
3.753124
 21
65.240625
 31
0.0
 11
4.949190
 21
64.917477
 31
0.0
 11
5.798726
 21
64.067940
 31
0.0
 11
6.121874
 21
62.871874
 31
0.0
  0
LWPOLYLINE
  5
136
100
AcDbEntity
  8
0
 62
7
100
AcDbPolyline
 90
2
 70
0
 10
6.121874
 20
62.871874
 30
0.0
 10
6.121874
 20
62.871874
 30
0.0
  0
SPLINE
  5
137
100
AcDbEntity
  8
0
 62
7
100
AcDbSpline
 70
0
 71
3
 72
19
 73
15
 74
13
 40
0.000000
 40
0.000000
 40
0.000000
 40
0.000000
 40
1.238949
 40
2.440376
 40
3.679326
 40
4.918275
 40
6.119701
 40
7.358651
 40
8.597601
 40
9.799028
 40
11.037977
 40
12.276927
 40
13.478353
 40
14.717303
 40
14.717303
 40
14.717303
 40
14.717303
 10
6.121874
 20
55.671874
 30
0.0
 10
6.056915
 20
55.254123
 30
0.0
 10
5.928962
 20
54.431272
 30
0.0
 10
4.985745
 20
53.525200
 30
0.0
 10
3.755294
 20
53.190380
 30
0.0
 10
2.511958
 20
53.525200
 30
0.0
 10
1.606614
 20
54.431272
 30
0.0
 10
1.271546
 20
55.671875
 30
0.0
 10
1.606614
 20
56.912477
 30
0.0
 10
2.511958
 20
57.818550
 30
0.0
 10
3.755294
 20
58.153369
 30
0.0
 10
4.985745
 20
57.818550
 30
0.0
 10
5.928962
 20
56.912477
 30
0.0
 10
6.056915
 20
56.089626
 30
0.0
 10
6.121874
 20
55.671874
 30
0.0
 11
6.121874
 21
55.671874
 31
0.0
 11
5.798726
 21
54.475810
 31
0.0
 11
4.949190
 21
53.626273
 31
0.0
 11
3.753124
 21
53.303125
 31
0.0
 11
2.557060
 21
53.626273
 31
0.0
 11
1.707523
 21
54.475810
 31
0.0
 11
1.384374
 21
55.671874
 31
0.0
 11
1.707523
 21
56.867940
 31
0.0
 11
2.557060
 21
57.717477
 31
0.0
 11
3.753124
 21
58.040625
 31
0.0
 11
4.949190
 21
57.717477
 31
0.0
 11
5.798726
 21
56.867940
 31
0.0
 11
6.121874
 21
55.671874
 31
0.0
  0
LWPOLYLINE
  5
138
100
AcDbEntity
  8
0
 62
7
100
AcDbPolyline
 90
2
 70
0
 10
6.121874
 20
55.671874
 30
0.0
 10
6.121874
 20
55.671874
 30
0.0
  0
SPLINE
  5
139
100
AcDbEntity
  8
0
 62
7
100
AcDbSpline
 70
0
 71
3
 72
19
 73
15
 74
13
 40
0.000000
 40
0.000000
 40
0.000000
 40
0.000000
 40
1.238949
 40
2.440375
 40
3.679325
 40
4.918274
 40
6.119701
 40
7.358650
 40
8.597600
 40
9.799027
 40
11.037976
 40
12.276926
 40
13.478353
 40
14.717303
 40
14.717303
 40
14.717303
 40
14.717303
 10
6.121874
 20
48.471874
 30
0.0
 10
6.056915
 20
48.054123
 30
0.0
 10
5.928962
 20
47.231273
 30
0.0
 10
4.985745
 20
46.325200
 30
0.0
 10
3.755294
 20
45.990380
 30
0.0
 10
2.511958
 20
46.325200
 30
0.0
 10
1.606614
 20
47.231272
 30
0.0
 10
1.271546
 20
48.471875
 30
0.0
 10
1.606614
 20
49.712477
 30
0.0
 10
2.511958
 20
50.618550
 30
0.0
 10
3.755294
 20
50.953369
 30
0.0
 10
4.985745
 20
50.618550
 30
0.0
 10
5.928962
 20
49.712477
 30
0.0
 10
6.056915
 20
48.889626
 30
0.0
 10
6.121874
 20
48.471874
 30
0.0
 11
6.121874
 21
48.471874
 31
0.0
 11
5.798726
 21
47.275810
 31
0.0
 11
4.949190
 21
46.426273
 31
0.0
 11
3.753124
 21
46.103125
 31
0.0
 11
2.557060
 21
46.426273
 31
0.0
 11
1.707523
 21
47.275810
 31
0.0
 11
1.384374
 21
48.471874
 31
0.0
 11
1.707523
 21
49.667940
 31
0.0
 11
2.557060
 21
50.517477
 31
0.0
 11
3.753124
 21
50.840625
 31
0.0
 11
4.949190
 21
50.517477
 31
0.0
 11
5.798726
 21
49.667940
 31
0.0
 11
6.121874
 21
48.471874
 31
0.0
  0
LWPOLYLINE
  5
13a
100
AcDbEntity
  8
0
 62
7
100
AcDbPolyline
 90
2
 70
0
 10
6.121874
 20
48.471874
 30
0.0
 10
6.121874
 20
48.471874
 30
0.0
  0
SPLINE
  5
13b
100
AcDbEntity
  8
0
 62
7
100
AcDbSpline
 70
0
 71
3
 72
19
 73
15
 74
13
 40
0.000000
 40
0.000000
 40
0.000000
 40
0.000000
 40
1.238949
 40
2.440376
 40
3.679326
 40
4.918275
 40
6.119702
 40
7.358652
 40
8.597602
 40
9.799028
 40
11.037977
 40
12.276927
 40
13.478353
 40
14.717303
 40
14.717303
 40
14.717303
 40
14.717303
 10
6.121874
 20
41.271874
 30
0.0
 10
6.056915
 20
40.854123
 30
0.0
 10
5.928962
 20
40.031272
 30
0.0
 10
4.985745
 20
39.125199
 30
0.0
 10
3.755294
 20
38.790379
 30
0.0
 10
2.511958
 20
39.125199
 30
0.0
 10
1.606614
 20
40.031272
 30
0.0
 10
1.271546
 20
41.271875
 30
0.0
 10
1.606614
 20
42.512477
 30
0.0
 10
2.511959
 20
43.418549
 30
0.0
 10
3.755294
 20
43.753369
 30
0.0
 10
4.985745
 20
43.418550
 30
0.0
 10
5.928963
 20
42.512477
 30
0.0
 10
6.056915
 20
41.689626
 30
0.0
 10
6.121874
 20
41.271874
 30
0.0
 11
6.121874
 21
41.271874
 31
0.0
 11
5.798726
 21
40.075810
 31
0.0
 11
4.949190
 21
39.226272
 31
0.0
 11
3.753124
 21
38.903124
 31
0.0
 11
2.557060
 21
39.226272
 31
0.0
 11
1.707523
 21
40.075810
 31
0.0
 11
1.384374
 21
41.271874
 31
0.0
 11
1.707523
 21
42.467940
 31
0.0
 11
2.557060
 21
43.317476
 31
0.0
 11
3.753124
 21
43.640624
 31
0.0
 11
4.949190
 21
43.317476
 31
0.0
 11
5.798726
 21
42.467940
 31
0.0
 11
6.121874
 21
41.271874
 31
0.0
  0
LWPOLYLINE
  5
13c
100
AcDbEntity
  8
0
 62
7
100
AcDbPolyline
 90
2
 70
0
 10
6.121874
 20
41.271874
 30
0.0
 10
6.121874
 20
41.271874
 30
0.0
  0
SPLINE
  5
13d
100
AcDbEntity
  8
0
 62
7
100
AcDbSpline
 70
0
 71
3
 72
19
 73
15
 74
13
 40
0.000000
 40
0.000000
 40
0.000000
 40
0.000000
 40
1.239732
 40
2.442223
 40
3.681385
 40
4.920546
 40
6.123037
 40
7.362769
 40
8.601718
 40
9.803145
 40
11.042094
 40
12.281044
 40
13.482471
 40
14.721420
 40
14.721420
 40
14.721420
 40
14.721420
 10
6.121874
 20
34.087501
 30
0.0
 10
6.056871
 20
33.669528
 30
0.0
 10
5.928816
 20
32.846139
 30
0.0
 10
4.986211
 20
31.938654
 30
0.0
 10
3.755295
 20
31.602436
 30
0.0
 10
2.511487
 20
31.938652
 30
0.0
 10
1.606797
 20
32.846148
 30
0.0
 10
1.271509
 20
34.087199
 30
0.0
 10
1.606605
 20
35.328112
 30
0.0
 10
2.511961
 20
36.234172
 30
0.0
 10
3.755293
 20
36.568996
 30
0.0
 10
4.985745
 20
36.234175
 30
0.0
 10
5.928962
 20
35.328103
 30
0.0
 10
6.056915
 20
34.505252
 30
0.0
 10
6.121874
 20
34.087501
 30
0.0
 11
6.121874
 21
34.087501
 31
0.0
 11
5.798726
 21
32.890625
 31
0.0
 11
4.949190
 21
32.039583
 31
0.0
 11
3.753124
 21
31.715625
 31
0.0
 11
2.557060
 21
32.039583
 31
0.0
 11
1.707523
 21
32.890625
 31
0.0
 11
1.384374
 21
34.087501
 31
0.0
 11
1.707523
 21
35.283565
 31
0.0
 11
2.557060
 21
36.133102
 31
0.0
 11
3.753124
 21
36.456250
 31
0.0
 11
4.949190
 21
36.133102
 31
0.0
 11
5.798726
 21
35.283565
 31
0.0
 11
6.121874
 21
34.087501
 31
0.0
  0
LWPOLYLINE
  5
13e
100
AcDbEntity
  8
0
 62
7
100
AcDbPolyline
 90
2
 70
0
 10
6.121874
 20
34.087501
 30
0.0
 10
6.121874
 20
34.087501
 30
0.0
  0
SPLINE
  5
13f
100
AcDbEntity
  8
0
 62
7
100
AcDbSpline
 70
0
 71
3
 72
19
 73
15
 74
13
 40
0.000000
 40
0.000000
 40
0.000000
 40
0.000000
 40
1.239732
 40
2.442223
 40
3.681384
 40
4.920545
 40
6.123036
 40
7.362768
 40
8.601717
 40
9.803145
 40
11.042094
 40
12.281044
 40
13.482471
 40
14.721420
 40
14.721420
 40
14.721420
 40
14.721420
 10
6.121874
 20
26.887500
 30
0.0
 10
6.056871
 20
26.469528
 30
0.0
 10
5.928816
 20
25.646138
 30
0.0
 10
4.986211
 20
24.738654
 30
0.0
 10
3.755295
 20
24.402436
 30
0.0
 10
2.511487
 20
24.738652
 30
0.0
 10
1.606797
 20
25.646148
 30
0.0
 10
1.271509
 20
26.887199
 30
0.0
 10
1.606605
 20
28.128112
 30
0.0
 10
2.511961
 20
29.034172
 30
0.0
 10
3.755293
 20
29.368996
 30
0.0
 10
4.985745
 20
29.034175
 30
0.0
 10
5.928962
 20
28.128102
 30
0.0
 10
6.056915
 20
27.305251
 30
0.0
 10
6.121874
 20
26.887500
 30
0.0
 11
6.121874
 21
26.887500
 31
0.0
 11
5.798726
 21
25.690625
 31
0.0
 11
4.949190
 21
24.839583
 31
0.0
 11
3.753124
 21
24.515625
 31
0.0
 11
2.557060
 21
24.839583
 31
0.0
 11
1.707523
 21
25.690625
 31
0.0
 11
1.384374
 21
26.887500
 31
0.0
 11
1.707523
 21
28.083565
 31
0.0
 11
2.557060
 21
28.933102
 31
0.0
 11
3.753124
 21
29.256250
 31
0.0
 11
4.949190
 21
28.933102
 31
0.0
 11
5.798726
 21
28.083565
 31
0.0
 11
6.121874
 21
26.887500
 31
0.0
  0
LWPOLYLINE
  5
140
100
AcDbEntity
  8
0
 62
7
100
AcDbPolyline
 90
2
 70
0
 10
6.121874
 20
26.887500
 30
0.0
 10
6.121874
 20
26.887500
 30
0.0
  0
SPLINE
  5
141
100
AcDbEntity
  8
0
 62
7
100
AcDbSpline
 70
0
 71
3
 72
19
 73
15
 74
13
 40
0.000000
 40
0.000000
 40
0.000000
 40
0.000000
 40
1.239732
 40
2.442223
 40
3.681384
 40
4.920545
 40
6.123036
 40
7.362768
 40
8.601717
 40
9.803145
 40
11.042094
 40
12.281044
 40
13.482471
 40
14.721420
 40
14.721420
 40
14.721420
 40
14.721420
 10
6.121874
 20
19.687500
 30
0.0
 10
6.056871
 20
19.269528
 30
0.0
 10
5.928816
 20
18.446138
 30
0.0
 10
4.986211
 20
17.538654
 30
0.0
 10
3.755295
 20
17.202436
 30
0.0
 10
2.511487
 20
17.538652
 30
0.0
 10
1.606797
 20
18.446148
 30
0.0
 10
1.271509
 20
19.687199
 30
0.0
 10
1.606605
 20
20.928112
 30
0.0
 10
2.511961
 20
21.834172
 30
0.0
 10
3.755293
 20
22.168996
 30
0.0
 10
4.985745
 20
21.834175
 30
0.0
 10
5.928962
 20
20.928102
 30
0.0
 10
6.056915
 20
20.105251
 30
0.0
 10
6.121874
 20
19.687500
 30
0.0
 11
6.121874
 21
19.687500
 31
0.0
 11
5.798726
 21
18.490625
 31
0.0
 11
4.949190
 21
17.639583
 31
0.0
 11
3.753124
 21
17.315625
 31
0.0
 11
2.557060
 21
17.639583
 31
0.0
 11
1.707523
 21
18.490625
 31
0.0
 11
1.384374
 21
19.687500
 31
0.0
 11
1.707523
 21
20.883565
 31
0.0
 11
2.557060
 21
21.733102
 31
0.0
 11
3.753124
 21
22.056250
 31
0.0
 11
4.949190
 21
21.733102
 31
0.0
 11
5.798726
 21
20.883565
 31
0.0
 11
6.121874
 21
19.687500
 31
0.0
  0
LWPOLYLINE
  5
142
100
AcDbEntity
  8
0
 62
7
100
AcDbPolyline
 90
2
 70
0
 10
6.121874
 20
19.687500
 30
0.0
 10
6.121874
 20
19.687500
 30
0.0
  0
SPLINE
  5
143
100
AcDbEntity
  8
0
 62
7
100
AcDbSpline
 70
0
 71
3
 72
19
 73
15
 74
13
 40
0.000000
 40
0.000000
 40
0.000000
 40
0.000000
 40
1.318910
 40
2.597513
 40
3.914330
 40
5.231148
 40
6.509751
 40
7.828661
 40
9.145449
 40
10.423479
 40
11.740266
 40
13.057054
 40
14.335083
 40
15.651871
 40
15.651871
 40
15.651871
 40
15.651871
 10
52.621874
 20
22.703125
 30
0.0
 10
52.552692
 20
22.258436
 30
0.0
 10
52.416440
 20
21.382649
 30
0.0
 10
51.413666
 20
20.418268
 30
0.0
 10
50.105435
 20
20.060996
 30
0.0
 10
48.783477
 20
20.418270
 30
0.0
 10
47.821107
 20
21.382642
 30
0.0
 10
47.464126
 20
22.702433
 30
0.0
 10
47.821421
 20
24.021887
 30
0.0
 10
48.783774
 20
24.984934
 30
0.0
 10
50.105433
 20
25.342115
 30
0.0
 10
51.413378
 20
24.984932
 30
0.0
 10
52.416065
 20
24.021893
 30
0.0
 10
52.552591
 20
23.147070
 30
0.0
 10
52.621874
 20
22.703125
 30
0.0
 11
52.621874
 21
22.703125
 31
0.0
 11
52.277893
 21
21.429861
 31
0.0
 11
51.374190
 21
20.525347
 31
0.0
 11
50.103125
 21
20.181250
 31
0.0
 11
48.832060
 21
20.525347
 31
0.0
 11
47.928356
 21
21.429861
 31
0.0
 11
47.584374
 21
22.703125
 31
0.0
 11
47.928356
 21
23.974190
 31
0.0
 11
48.832060
 21
24.877893
 31
0.0
 11
50.103125
 21
25.221874
 31
0.0
 11
51.374190
 21
24.877893
 31
0.0
 11
52.277893
 21
23.974190
 31
0.0
 11
52.621874
 21
22.703125
 31
0.0
  0
LWPOLYLINE
  5
144
100
AcDbEntity
  8
0
 62
7
100
AcDbPolyline
 90
2
 70
0
 10
52.621874
 20
22.703125
 30
0.0
 10
52.621874
 20
22.703125
 30
0.0
  0
SPLINE
  5
145
100
AcDbEntity
  8
0
 62
7
100
AcDbSpline
 70
0
 71
3
 72
19
 73
15
 74
13
 40
0.000000
 40
0.000000
 40
0.000000
 40
0.000000
 40
1.318940
 40
2.598117
 40
3.917057
 40
5.233875
 40
6.512478
 40
7.831388
 40
9.148175
 40
10.426206
 40
11.742992
 40
13.061903
 40
14.340507
 40
15.657324
 40
15.657324
 40
15.657324
 40
15.657324
 10
-27.766843
 20
68.555720
 30
0.0
 10
-27.836037
 20
68.110999
 30
0.0
 10
-27.972337
 20
67.234966
 30
0.0
 10
-28.976481
 20
66.270476
 30
0.0
 10
-30.285716
 20
65.913672
 30
0.0
 10
-31.608360
 20
66.270794
 30
0.0
 10
-32.570738
 20
67.235256
 30
0.0
 10
-32.927717
 20
68.555029
 30
0.0
 10
-32.570423
 20
69.874464
 30
0.0
 10
-31.608063
 20
70.837600
 30
0.0
 10
-30.285717
 20
71.194630
 30
0.0
 10
-28.976769
 20
70.837914
 30
0.0
 10
-27.972713
 20
69.874766
 30
0.0
 10
-27.836137
 20
68.999697
 30
0.0
 10
-27.766843
 20
68.555720
 30
0.0
 11
-27.766843
 21
68.555720
 31
0.0
 11
-28.110941
 21
67.282456
 31
0.0
 11
-29.015455
 21
66.377942
 31
0.0
 11
-30.288719
 21
66.033845
 31
0.0
 11
-31.559783
 21
66.377942
 31
0.0
 11
-32.463487
 21
67.282456
 31
0.0
 11
-32.807469
 21
68.555720
 31
0.0
 11
-32.463487
 21
69.826785
 31
0.0
 11
-31.559783
 21
70.730489
 31
0.0
 11
-30.288719
 21
71.074470
 31
0.0
 11
-29.015455
 21
70.730489
 31
0.0
 11
-28.110941
 21
69.826785
 31
0.0
 11
-27.766843
 21
68.555720
 31
0.0
  0
LWPOLYLINE
  5
146
100
AcDbEntity
  8
0
 62
7
100
AcDbPolyline
 90
2
 70
0
 10
-27.766843
 20
68.555720
 30
0.0
 10
-27.766843
 20
68.555720
 30
0.0
  0
SPLINE
  5
147
100
AcDbEntity
  8
0
 62
7
100
AcDbSpline
 70
0
 71
3
 72
19
 73
15
 74
13
 40
0.000000
 40
0.000000
 40
0.000000
 40
0.000000
 40
0.666079
 40
1.312787
 40
1.980388
 40
2.646649
 40
3.293848
 40
3.960108
 40
4.627709
 40
5.274417
 40
5.940496
 40
6.607917
 40
7.254133
 40
7.921554
 40
7.921554
 40
7.921554
 40
7.921554
 10
47.837500
 20
38.240624
 30
0.0
 10
47.802574
 20
38.016054
 30
0.0
 10
47.733739
 20
37.573444
 30
0.0
 10
47.226534
 20
37.085389
 30
0.0
 10
46.564053
 20
36.904703
 30
0.0
 10
45.894857
 20
37.085893
 30
0.0
 10
45.407856
 20
37.573284
 30
0.0
 10
45.226535
 20
38.241015
 30
0.0
 10
45.407349
 20
38.908945
 30
0.0
 10
45.895033
 20
39.396226
 30
0.0
 10
46.564054
 20
39.576116
 30
0.0
 10
47.226356
 20
39.396737
 30
0.0
 10
47.734260
 20
38.908753
 30
0.0
 10
47.802718
 20
38.465717
 30
0.0
 10
47.837500
 20
38.240624
 30
0.0
 11
47.837500
 21
38.240624
 31
0.0
 11
47.663889
 21
37.597569
 31
0.0
 11
47.206945
 21
37.139930
 31
0.0
 11
46.562500
 21
36.965624
 31
0.0
 11
45.919444
 21
37.139930
 31
0.0
 11
45.461805
 21
37.597569
 31
0.0
 11
45.287500
 21
38.240624
 31
0.0
 11
45.461805
 21
38.885069
 31
0.0
 11
45.919444
 21
39.342013
 31
0.0
 11
46.562500
 21
39.515624
 31
0.0
 11
47.206945
 21
39.342013
 31
0.0
 11
47.663889
 21
38.885069
 31
0.0
 11
47.837500
 21
38.240624
 31
0.0
  0
LWPOLYLINE
  5
148
100
AcDbEntity
  8
0
 62
7
100
AcDbPolyline
 90
2
 70
0
 10
47.837500
 20
38.240624
 30
0.0
 10
47.837500
 20
38.240624
 30
0.0
  0
SPLINE
  5
149
100
AcDbEntity
  8
0
 62
7
100
AcDbSpline
 70
0
 71
3
 72
19
 73
15
 74
13
 40
0.000000
 40
0.000000
 40
0.000000
 40
0.000000
 40
0.667601
 40
1.314309
 40
1.980388
 40
2.647808
 40
3.294025
 40
3.961445
 40
4.627525
 40
5.274233
 40
5.941834
 40
6.608094
 40
7.255293
 40
7.921554
 40
7.921554
 40
7.921554
 40
7.921554
 10
47.809374
 20
42.203124
 30
0.0
 10
47.774346
 20
41.978007
 30
0.0
 10
47.705385
 20
41.534819
 30
0.0
 10
47.197230
 20
41.047518
 30
0.0
 10
46.535157
 20
40.867632
 30
0.0
 10
45.865925
 20
41.047015
 30
0.0
 10
45.378355
 20
41.534980
 30
0.0
 10
45.198836
 20
42.202733
 30
0.0
 10
45.378861
 20
42.870289
 30
0.0
 10
45.865749
 20
43.358363
 30
0.0
 10
46.535157
 20
43.539045
 30
0.0
 10
47.197407
 20
43.357852
 30
0.0
 10
47.704864
 20
42.870480
 30
0.0
 10
47.774202
 20
42.427718
 30
0.0
 10
47.809374
 20
42.203124
 30
0.0
 11
47.809374
 21
42.203124
 31
0.0
 11
47.635069
 21
41.558680
 31
0.0
 11
47.177430
 21
41.101735
 31
0.0
 11
46.534374
 21
40.928124
 31
0.0
 11
45.889930
 21
41.101735
 31
0.0
 11
45.432986
 21
41.558680
 31
0.0
 11
45.259374
 21
42.203124
 31
0.0
 11
45.432986
 21
42.846180
 31
0.0
 11
45.889930
 21
43.303819
 31
0.0
 11
46.534374
 21
43.478124
 31
0.0
 11
47.177430
 21
43.303819
 31
0.0
 11
47.635069
 21
42.846180
 31
0.0
 11
47.809374
 21
42.203124
 31
0.0
  0
LWPOLYLINE
  5
14a
100
AcDbEntity
  8
0
 62
7
100
AcDbPolyline
 90
2
 70
0
 10
47.809374
 20
42.203124
 30
0.0
 10
47.809374
 20
42.203124
 30
0.0
  0
SPLINE
  5
14b
100
AcDbEntity
  8
0
 62
7
100
AcDbSpline
 70
0
 71
3
 72
19
 73
15
 74
13
 40
0.000000
 40
0.000000
 40
0.000000
 40
0.000000
 40
0.666260
 40
1.313459
 40
1.979720
 40
2.645980
 40
3.293179
 40
3.959439
 40
4.625700
 40
5.272899
 40
5.939159
 40
6.605420
 40
7.252619
 40
7.918879
 40
7.918879
 40
7.918879
 40
7.918879
 10
38.403125
 20
50.796874
 30
0.0
 10
38.367951
 20
50.572275
 30
0.0
 10
38.298610
 20
50.129503
 30
0.0
 10
37.791172
 20
49.642210
 30
0.0
 10
37.129299
 20
49.460834
 30
0.0
 10
36.460447
 20
49.642210
 30
0.0
 10
35.973549
 20
50.129503
 30
0.0
 10
35.792039
 20
50.796875
 30
0.0
 10
35.973549
 20
51.464246
 30
0.0
 10
36.460447
 20
51.951540
 30
0.0
 10
37.129299
 20
52.132915
 30
0.0
 10
37.791172
 20
51.951540
 30
0.0
 10
38.298610
 20
51.464246
 30
0.0
 10
38.367951
 20
51.021474
 30
0.0
 10
38.403125
 20
50.796874
 30
0.0
 11
38.403125
 21
50.796874
 31
0.0
 11
38.228819
 21
50.153819
 31
0.0
 11
37.771181
 21
49.696180
 31
0.0
 11
37.128125
 21
49.521874
 31
0.0
 11
36.485069
 21
49.696180
 31
0.0
 11
36.027430
 21
50.153819
 31
0.0
 11
35.853125
 21
50.796874
 31
0.0
 11
36.027430
 21
51.439930
 31
0.0
 11
36.485069
 21
51.897569
 31
0.0
 11
37.128125
 21
52.071874
 31
0.0
 11
37.771181
 21
51.897569
 31
0.0
 11
38.228819
 21
51.439930
 31
0.0
 11
38.403125
 21
50.796874
 31
0.0
  0
LWPOLYLINE
  5
14c
100
AcDbEntity
  8
0
 62
7
100
AcDbPolyline
 90
2
 70
0
 10
38.403125
 20
50.796874
 30
0.0
 10
38.403125
 20
50.796874
 30
0.0
  0
SPLINE
  5
14d
100
AcDbEntity
  8
0
 62
7
100
AcDbSpline
 70
0
 71
3
 72
19
 73
15
 74
13
 40
0.000000
 40
0.000000
 40
0.000000
 40
0.000000
 40
0.666261
 40
1.313460
 40
1.979720
 40
2.647321
 40
3.294029
 40
3.960108
 40
4.627528
 40
5.273745
 40
5.941165
 40
6.607245
 40
7.253953
 40
7.921554
 40
7.921554
 40
7.921554
 40
7.921554
 10
16.459374
 20
27.756250
 30
0.0
 10
16.424202
 20
27.531657
 30
0.0
 10
16.354863
 20
27.088894
 30
0.0
 10
15.847407
 20
26.601523
 30
0.0
 10
15.185157
 20
26.420329
 30
0.0
 10
14.515749
 20
26.601012
 30
0.0
 10
14.028861
 20
27.089086
 30
0.0
 10
13.848836
 20
27.756641
 30
0.0
 10
14.028355
 20
28.424395
 30
0.0
 10
14.515925
 20
28.912359
 30
0.0
 10
15.185157
 20
29.091742
 30
0.0
 10
15.847230
 20
28.911857
 30
0.0
 10
16.355385
 20
28.424556
 30
0.0
 10
16.424346
 20
27.981367
 30
0.0
 10
16.459374
 20
27.756250
 30
0.0
 11
16.459374
 21
27.756250
 31
0.0
 11
16.285069
 21
27.113195
 31
0.0
 11
15.827430
 21
26.655556
 31
0.0
 11
15.184374
 21
26.481250
 31
0.0
 11
14.539930
 21
26.655556
 31
0.0
 11
14.082986
 21
27.113195
 31
0.0
 11
13.909374
 21
27.756250
 31
0.0
 11
14.082986
 21
28.400695
 31
0.0
 11
14.539930
 21
28.857639
 31
0.0
 11
15.184374
 21
29.031250
 31
0.0
 11
15.827430
 21
28.857639
 31
0.0
 11
16.285069
 21
28.400695
 31
0.0
 11
16.459374
 21
27.756250
 31
0.0
  0
LWPOLYLINE
  5
14e
100
AcDbEntity
  8
0
 62
7
100
AcDbPolyline
 90
2
 70
0
 10
16.459374
 20
27.756250
 30
0.0
 10
16.459374
 20
27.756250
 30
0.0
  0
SPLINE
  5
14f
100
AcDbEntity
  8
0
 62
7
100
AcDbSpline
 70
0
 71
3
 72
19
 73
15
 74
13
 40
0.000000
 40
0.000000
 40
0.000000
 40
0.000000
 40
0.667420
 40
1.313637
 40
1.981057
 40
2.647136
 40
3.293845
 40
3.961446
 40
4.627706
 40
5.274905
 40
5.941166
 40
6.608767
 40
7.255475
 40
7.921554
 40
7.921554
 40
7.921554
 40
7.921554
 10
33.100000
 20
51.478125
 30
0.0
 10
33.065218
 20
51.253032
 30
0.0
 10
32.996760
 20
50.809996
 30
0.0
 10
32.488856
 20
50.322012
 30
0.0
 10
31.826554
 20
50.142633
 30
0.0
 10
31.157533
 20
50.322522
 30
0.0
 10
30.669849
 20
50.809804
 30
0.0
 10
30.489035
 20
51.477734
 30
0.0
 10
30.670356
 20
52.145465
 30
0.0
 10
31.157357
 20
52.632857
 30
0.0
 10
31.826553
 20
52.814046
 30
0.0
 10
32.489034
 20
52.633360
 30
0.0
 10
32.996239
 20
52.145305
 30
0.0
 10
33.065074
 20
51.702695
 30
0.0
 10
33.100000
 20
51.478125
 30
0.0
 11
33.100000
 21
51.478125
 31
0.0
 11
32.926389
 21
50.833680
 31
0.0
 11
32.469445
 21
50.376736
 31
0.0
 11
31.825000
 21
50.203125
 31
0.0
 11
31.181944
 21
50.376736
 31
0.0
 11
30.724305
 21
50.833680
 31
0.0
 11
30.550000
 21
51.478125
 31
0.0
 11
30.724305
 21
52.121181
 31
0.0
 11
31.181944
 21
52.578819
 31
0.0
 11
31.825000
 21
52.753125
 31
0.0
 11
32.469445
 21
52.578819
 31
0.0
 11
32.926389
 21
52.121181
 31
0.0
 11
33.100000
 21
51.478125
 31
0.0
  0
LWPOLYLINE
  5
150
100
AcDbEntity
  8
0
 62
7
100
AcDbPolyline
 90
2
 70
0
 10
33.100000
 20
51.478125
 30
0.0
 10
33.100000
 20
51.478125
 30
0.0
  0
SPLINE
  5
151
100
AcDbEntity
  8
0
 62
7
100
AcDbSpline
 70
0
 71
3
 72
19
 73
15
 74
13
 40
0.000000
 40
0.000000
 40
0.000000
 40
0.000000
 40
0.666260
 40
1.313459
 40
1.979719
 40
2.645980
 40
3.293179
 40
3.959439
 40
4.627040
 40
5.273748
 40
5.939828
 40
6.605906
 40
7.252615
 40
7.920216
 40
7.920216
 40
7.920216
 40
7.920216
 10
24.093750
 20
31.565624
 30
0.0
 10
24.058576
 20
31.341025
 30
0.0
 10
23.989235
 20
30.898253
 30
0.0
 10
23.481798
 20
30.410959
 30
0.0
 10
22.819920
 20
30.229584
 30
0.0
 10
22.151090
 20
30.410955
 30
0.0
 10
21.664112
 20
30.898269
 30
0.0
 10
21.482783
 20
31.566015
 30
0.0
 10
21.663605
 20
32.233961
 30
0.0
 10
22.151266
 20
32.721165
 30
0.0
 10
22.819921
 20
32.901234
 30
0.0
 10
23.481621
 20
32.721168
 30
0.0
 10
23.989757
 20
32.233945
 30
0.0
 10
24.058720
 20
31.790746
 30
0.0
 10
24.093750
 20
31.565624
 30
0.0
 11
24.093750
 21
31.565624
 31
0.0
 11
23.919445
 21
30.922569
 31
0.0
 11
23.461806
 21
30.464930
 31
0.0
 11
22.818750
 21
30.290624
 31
0.0
 11
22.175695
 21
30.464930
 31
0.0
 11
21.718056
 21
30.922569
 31
0.0
 11
21.543750
 21
31.565624
 31
0.0
 11
21.718056
 21
32.210069
 31
0.0
 11
22.175695
 21
32.667013
 31
0.0
 11
22.818750
 21
32.840624
 31
0.0
 11
23.461806
 21
32.667013
 31
0.0
 11
23.919445
 21
32.210069
 31
0.0
 11
24.093750
 21
31.565624
 31
0.0
  0
LWPOLYLINE
  5
152
100
AcDbEntity
  8
0
 62
7
100
AcDbPolyline
 90
2
 70
0
 10
24.093750
 20
31.565624
 30
0.0
 10
24.093750
 20
31.565624
 30
0.0
  0
SPLINE
  5
153
100
AcDbEntity
  8
0
 62
7
100
AcDbSpline
 70
0
 71
3
 72
19
 73
15
 74
13
 40
0.000000
 40
0.000000
 40
0.000000
 40
0.000000
 40
0.667601
 40
1.314309
 40
1.980388
 40
2.646467
 40
3.293176
 40
3.960777
 40
4.627037
 40
5.274236
 40
5.940496
 40
6.606757
 40
7.253956
 40
7.920216
 40
7.920216
 40
7.920216
 40
7.920216
 10
42.453125
 20
34.087501
 30
0.0
 10
42.418095
 20
33.862379
 30
0.0
 10
42.349132
 20
33.419180
 30
0.0
 10
41.840996
 20
32.931956
 30
0.0
 10
41.179295
 20
32.751891
 30
0.0
 10
40.510640
 20
32.931960
 30
0.0
 10
40.022979
 20
33.419164
 30
0.0
 10
39.842157
 20
34.087110
 30
0.0
 10
40.023487
 20
34.754856
 30
0.0
 10
40.510464
 20
35.242170
 30
0.0
 10
41.179295
 20
35.423540
 30
0.0
 10
41.841173
 20
35.242166
 30
0.0
 10
42.348610
 20
34.754872
 30
0.0
 10
42.417951
 20
34.312100
 30
0.0
 10
42.453125
 20
34.087501
 30
0.0
 11
42.453125
 21
34.087501
 31
0.0
 11
42.278819
 21
33.443056
 31
0.0
 11
41.821181
 21
32.986112
 31
0.0
 11
41.178125
 21
32.812501
 31
0.0
 11
40.535069
 21
32.986112
 31
0.0
 11
40.077430
 21
33.443056
 31
0.0
 11
39.903125
 21
34.087501
 31
0.0
 11
40.077430
 21
34.730556
 31
0.0
 11
40.535069
 21
35.188195
 31
0.0
 11
41.178125
 21
35.362501
 31
0.0
 11
41.821181
 21
35.188195
 31
0.0
 11
42.278819
 21
34.730556
 31
0.0
 11
42.453125
 21
34.087501
 31
0.0
  0
LWPOLYLINE
  5
154
100
AcDbEntity
  8
0
 62
7
100
AcDbPolyline
 90
2
 70
0
 10
42.453125
 20
34.087501
 30
0.0
 10
42.453125
 20
34.087501
 30
0.0
  0
LWPOLYLINE
  5
155
100
AcDbEntity
  8
0
 62
7
100
AcDbPolyline
 90
2
 70
0
 10
52.534374
 20
63.231250
 30
0.0
 10
52.534374
 20
63.231250
 30
0.0
  0
LWPOLYLINE
  5
156
100
AcDbEntity
  8
0
 62
7
100
AcDbPolyline
 90
2
 70
0
 10
64.846874
 20
16.087500
 30
0.0
 10
64.846874
 20
80.871875
 30
0.0
  0
LWPOLYLINE
  5
157
100
AcDbEntity
  8
0
 62
7
100
AcDbPolyline
 90
2
 70
0
 10
0.153124
 20
80.871875
 30
0.0
 10
0.153124
 20
16.087500
 30
0.0
  0
LWPOLYLINE
  5
158
100
AcDbEntity
  8
0
 62
7
100
AcDbPolyline
 90
18
 70
0
 10
23.571874
 20
51.115625
 30
0.0
 10
23.918750
 20
50.531250
 30
0.0
 10
24.293750
 20
49.959374
 30
0.0
 10
24.712500
 20
49.434374
 30
0.0
 10
25.178125
 20
48.925000
 30
0.0
 10
25.671874
 20
48.459374
 30
0.0
 10
26.212500
 20
48.040625
 30
0.0
 10
26.768750
 20
47.650000
 30
0.0
 10
27.353125
 20
47.306250
 30
0.0
 10
27.968750
 20
47.018750
 30
0.0
 10
28.821874
 20
46.900001
 30
0.0
 10
29.678125
 20
46.840625
 30
0.0
 10
30.546874
 20
46.840625
 30
0.0
 10
31.403125
 20
46.900001
 30
0.0
 10
32.256250
 20
47.006250
 30
0.0
 10
33.112500
 20
47.168750
 30
0.0
 10
33.937500
 20
47.393750
 30
0.0
 10
34.762500
 20
47.665625
 30
0.0
  0
LWPOLYLINE
  5
159
100
AcDbEntity
  8
0
 62
7
100
AcDbPolyline
 90
2
 70
0
 10
25.656250
 20
42.400001
 30
0.0
 10
32.496874
 20
40.600001
 30
0.0
  0
LWPOLYLINE
  5
15a
100
AcDbEntity
  8
0
 62
7
100
AcDbPolyline
 90
11
 70
0
 10
15.953125
 20
54.609374
 30
0.0
 10
22.896874
 20
47.500001
 30
0.0
 10
23.271874
 20
47.006250
 30
0.0
 10
23.678125
 20
46.556250
 30
0.0
 10
24.128125
 20
46.150001
 30
0.0
 10
24.621874
 20
45.775001
 30
0.0
 10
25.146874
 20
45.459374
 30
0.0
 10
25.687500
 20
45.190625
 30
0.0
 10
26.271874
 20
44.981250
 30
0.0
 10
26.856250
 20
44.815625
 30
0.0
 10
27.456250
 20
44.709374
 30
0.0
  0
LWPOLYLINE
  5
15b
100
AcDbEntity
  8
0
 62
7
100
AcDbPolyline
 90
13
 70
0
 10
22.896874
 20
47.500000
 30
0.0
 10
21.696874
 20
42.400001
 30
0.0
 10
21.621874
 20
41.934374
 30
0.0
 10
21.593754
 20
41.456250
 30
0.0
 10
21.606258
 20
40.959374
 30
0.0
 10
21.681258
 20
40.481250
 30
0.0
 10
21.803133
 20
40.015625
 30
0.0
 10
21.981258
 20
39.565625
 30
0.0
 10
22.193758
 20
39.131250
 30
0.0
 10
22.462508
 20
38.740625
 30
0.0
 10
22.778133
 20
38.365625
 30
0.0
 10
23.121882
 20
38.018750
 30
0.0
 10
23.496882
 20
37.734374
 30
0.0
  0
LWPOLYLINE
  5
15c
100
AcDbEntity
  8
0
 62
7
100
AcDbPolyline
 90
15
 70
0
 10
26.018750
 20
30.175001
 30
0.0
 10
26.181250
 20
30.759374
 30
0.0
 10
26.303125
 20
31.359374
 30
0.0
 10
26.362501
 20
31.959374
 30
0.0
 10
26.362501
 20
32.575001
 30
0.0
 10
26.303125
 20
33.175001
 30
0.0
 10
26.181250
 20
33.775001
 30
0.0
 10
26.018750
 20
34.375001
 30
0.0
 10
25.806250
 20
34.943750
 30
0.0
 10
25.537500
 20
35.484374
 30
0.0
 10
25.206250
 20
36.009374
 30
0.0
 10
24.846874
 20
36.490625
 30
0.0
 10
24.443750
 20
36.940625
 30
0.0
 10
23.993750
 20
37.359374
 30
0.0
 10
23.496874
 20
37.734374
 30
0.0
  0
LWPOLYLINE
  5
15d
100
AcDbEntity
  8
0
 62
7
100
AcDbPolyline
 90
6
 70
0
 10
27.456250
 20
44.709374
 30
0.0
 10
28.912500
 20
44.484374
 30
0.0
 10
30.368750
 20
44.318750
 30
0.0
 10
31.821874
 20
44.184374
 30
0.0
 10
33.293750
 20
44.109374
 30
0.0
 10
34.762500
 20
44.065622
 30
0.0
  0
LWPOLYLINE
  5
15e
100
AcDbEntity
  8
0
 62
7
100
AcDbPolyline
 90
3
 70
0
 10
27.456250
 20
59.709374
 30
0.0
 10
33.218750
 20
59.350000
 30
0.0
 10
38.978125
 20
59.350000
 30
0.0
  0
LWPOLYLINE
  5
15f
100
AcDbEntity
  8
0
 62
7
100
AcDbPolyline
 90
3
 70
0
 10
32.856250
 20
68.425000
 30
0.0
 10
32.856250
 20
60.790624
 30
0.0
 10
33.218750
 20
59.350000
 30
0.0
  0
LWPOLYLINE
  5
160
100
AcDbEntity
  8
0
 62
7
100
AcDbPolyline
 90
2
 70
0
 10
22.131250
 20
53.831250
 30
0.0
 10
27.456250
 20
53.756250
 30
0.0
  0
LWPOLYLINE
  5
161
100
AcDbEntity
  8
0
 62
7
100
AcDbPolyline
 90
2
 70
0
 10
15.081250
 20
67.600000
 30
0.0
 10
26.781250
 20
67.600000
 30
0.0
  0
LWPOLYLINE
  5
162
100
AcDbEntity
  8
0
 62
7
100
AcDbPolyline
 90
2
 70
0
 10
11.812500
 20
64.331250
 30
0.0
 10
15.081250
 20
67.600000
 30
0.0
  0
LWPOLYLINE
  5
163
100
AcDbEntity
  8
0
 62
7
100
AcDbPolyline
 90
2
 70
0
 10
3.712500
 20
55.718750
 30
0.0
 10
13.793750
 20
47.800000
 30
0.0
  0
LWPOLYLINE
  5
164
100
AcDbEntity
  8
0
 62
7
100
AcDbPolyline
 90
2
 70
0
 10
3.712500
 20
41.318750
 30
0.0
 10
15.681250
 20
40.465625
 30
0.0
  0
LWPOLYLINE
  5
165
100
AcDbEntity
  8
0
 62
7
100
AcDbPolyline
 90
8
 70
0
 10
23.856250
 20
27.656250
 30
0.0
 10
24.278125
 20
27.893750
 30
0.0
 10
24.668750
 20
28.181250
 30
0.0
 10
25.028125
 20
28.525000
 30
0.0
 10
25.343750
 20
28.884374
 30
0.0
 10
25.612500
 20
29.290625
 30
0.0
 10
25.837500
 20
29.725000
 30
0.0
 10
26.018750
 20
30.175001
 30
0.0
  0
LWPOLYLINE
  5
166
100
AcDbEntity
  8
0
 62
7
100
AcDbPolyline
 90
4
 70
0
 10
23.856250
 20
27.656250
 30
0.0
 10
23.003125
 20
27.190625
 30
0.0
 10
22.162500
 20
26.709374
 30
0.0
 10
21.337500
 20
26.215625
 30
0.0
  0
LWPOLYLINE
  5
167
100
AcDbEntity
  8
0
 62
7
100
AcDbPolyline
 90
12
 70
0
 10
13.793750
 20
24.775000
 30
0.0
 10
14.496874
 20
24.668750
 30
0.0
 10
15.203125
 20
24.593750
 30
0.0
 10
15.921874
 20
24.593750
 30
0.0
 10
16.643750
 20
24.624998
 30
0.0
 10
17.346874
 20
24.715623
 30
0.0
 10
18.053125
 20
24.849998
 30
0.0
 10
18.743750
 20
25.031249
 30
0.0
 10
19.418750
 20
25.256249
 30
0.0
 10
20.093750
 20
25.524998
 30
0.0
 10
20.721874
 20
25.856249
 30
0.0
 10
21.337500
 20
26.215623
 30
0.0
  0
LWPOLYLINE
  5
168
100
AcDbEntity
  8
0
 62
7
100
AcDbPolyline
 90
3
 70
0
 10
3.712500
 20
26.934374
 30
0.0
 10
8.737500
 20
25.793750
 30
0.0
 10
13.793750
 20
24.775000
 30
0.0
  0
LWPOLYLINE
  5
169
100
AcDbEntity
  8
0
 62
7
100
AcDbPolyline
 90
2
 70
0
 10
34.762500
 20
36.865624
 30
0.0
 10
20.256250
 20
19.734374
 30
0.0
  0
LWPOLYLINE
  5
16a
100
AcDbEntity
  8
0
 62
7
100
AcDbPolyline
 90
3
 70
0
 10
50.256250
 20
47.618750
 30
0.0
 10
53.181250
 20
47.618750
 30
0.0
 10
61.281250
 20
55.718750
 30
0.0
  0
LWPOLYLINE
  5
16b
100
AcDbEntity
  8
0
 62
7
100
AcDbPolyline
 90
4
 70
0
 10
50.212500
 20
43.000001
 30
0.0
 10
53.737500
 20
43.000001
 30
0.0
 10
53.737500
 20
37.734374
 30
0.0
 10
50.212500
 20
37.734374
 30
0.0
  0
LWPOLYLINE
  5
16c
100
AcDbEntity
  8
0
 62
7
100
AcDbPolyline
 90
2
 70
0
 10
15.953125
 20
59.709374
 30
0.0
 10
22.131250
 20
59.768750
 30
0.0
  0
SPLINE
  5
16d
100
AcDbEntity
  8
0
 62
7
100
AcDbSpline
 70
0
 71
3
 72
19
 73
15
 74
13
 40
0.000000
 40
0.000000
 40
0.000000
 40
0.000000
 40
0.666261
 40
1.313460
 40
1.979720
 40
2.647321
 40
3.294029
 40
3.960108
 40
4.627528
 40
5.273745
 40
5.941165
 40
6.607245
 40
7.253953
 40
7.921554
 40
7.921554
 40
7.921554
 40
7.921554
 10
52.534374
 20
63.231250
 30
0.0
 10
52.499202
 20
63.006657
 30
0.0
 10
52.429863
 20
62.563894
 30
0.0
 10
51.922407
 20
62.076523
 30
0.0
 10
51.260157
 20
61.895329
 30
0.0
 10
50.590749
 20
62.076012
 30
0.0
 10
50.103861
 20
62.564086
 30
0.0
 10
49.923836
 20
63.231641
 30
0.0
 10
50.103355
 20
63.899395
 30
0.0
 10
50.590925
 20
64.387359
 30
0.0
 10
51.260157
 20
64.566742
 30
0.0
 10
51.922230
 20
64.386857
 30
0.0
 10
52.430385
 20
63.899556
 30
0.0
 10
52.499346
 20
63.456367
 30
0.0
 10
52.534374
 20
63.231250
 30
0.0
 11
52.534374
 21
63.231250
 31
0.0
 11
52.360069
 21
62.588195
 31
0.0
 11
51.902430
 21
62.130556
 31
0.0
 11
51.259374
 21
61.956250
 31
0.0
 11
50.614930
 21
62.130556
 31
0.0
 11
50.157986
 21
62.588195
 31
0.0
 11
49.984374
 21
63.231250
 31
0.0
 11
50.157986
 21
63.875695
 31
0.0
 11
50.614930
 21
64.332639
 31
0.0
 11
51.259374
 21
64.506250
 31
0.0
 11
51.902430
 21
64.332639
 31
0.0
 11
52.360069
 21
63.875695
 31
0.0
 11
52.534374
 21
63.231250
 31
0.0
  0
LWPOLYLINE
  5
16e
100
AcDbEntity
  8
0
 62
7
100
AcDbPolyline
 90
3
 70
0
 10
30.937500
 20
68.425000
 30
0.0
 10
30.937500
 20
62.981250
 30
0.0
 10
24.637500
 20
62.981250
 30
0.0
  0
LWPOLYLINE
  5
16f
100
AcDbEntity
  8
0
 62
7
100
AcDbPolyline
 90
3
 70
0
 10
45.531250
 20
53.634374
 30
0.0
 10
39.696874
 20
48.159374
 30
0.0
 10
39.696874
 20
40.418750
 30
0.0
  0
LWPOLYLINE
  5
170
100
AcDbEntity
  8
0
 62
7
100
AcDbPolyline
 90
2
 70
0
 10
51.668750
 20
52.059374
 30
0.0
 10
45.818750
 20
53.634374
 30
0.0
  0
LWPOLYLINE
  5
171
100
AcDbEntity
  8
0
 62
7
100
AcDbPolyline
 90
2
 70
0
 10
38.978125
 20
54.250000
 30
0.0
 10
45.818750
 20
53.634374
 30
0.0
  0
LWPOLYLINE
  5
172
100
AcDbEntity
  8
0
 62
7
100
AcDbPolyline
 90
3
 70
0
 10
16.312500
 20
36.656250
 30
0.0
 10
19.912500
 20
36.656250
 30
0.0
 10
19.912500
 20
32.693750
 30
0.0
  0
LWPOLYLINE
  5
173
100
AcDbEntity
  8
0
 62
7
100
AcDbPolyline
 90
2
 70
0
 10
19.656250
 20
31.868750
 30
0.0
 10
22.778125
 20
31.615625
 30
0.0
  0
LWPOLYLINE
  5
174
100
AcDbEntity
  8
0
 62
7
100
AcDbPolyline
 90
2
 70
0
 10
41.128125
 20
34.106250
 30
0.0
 10
42.846874
 20
37.615625
 30
0.0
  0
LWPOLYLINE
  5
175
100
AcDbEntity
  8
0
 62
7
100
AcDbPolyline
 90
3
 70
0
 10
61.281250
 20
26.934374
 30
0.0
 10
54.456250
 20
34.856250
 30
0.0
 10
41.171874
 20
34.106250
 30
0.0
  0
LWPOLYLINE
  5
176
100
AcDbEntity
  8
0
 62
7
100
AcDbPolyline
 90
2
 70
0
 10
3.712500
 20
48.518750
 30
0.0
 10
13.793750
 20
44.200001
 30
0.0
  0
LWPOLYLINE
  5
177
100
AcDbEntity
  8
0
 62
7
100
AcDbPolyline
 90
3
 70
0
 10
51.668750
 20
57.159374
 30
0.0
 10
57.337500
 20
59.318750
 30
0.0
 10
61.956250
 20
62.784374
 30
0.0
  0
LWPOLYLINE
  5
178
100
AcDbEntity
  8
0
 62
7
100
AcDbPolyline
 90
20
 70
0
 10
34.612500
 20
67.868750
 30
0.0
 10
34.581252
 20
64.718750
 30
0.0
 10
35.168750
 20
64.375000
 30
0.0
 10
35.768750
 20
64.075000
 30
0.0
 10
36.381250
 20
63.818750
 30
0.0
 10
37.028125
 20
63.625000
 30
0.0
 10
37.687500
 20
63.475000
 30
0.0
 10
38.346874
 20
63.368750
 30
0.0
 10
39.021874
 20
63.340622
 30
0.0
 10
39.696874
 20
63.356238
 30
0.0
 10
40.356250
 20
63.415614
 30
0.0
 10
41.018750
 20
63.549990
 30
0.0
 10
41.662500
 20
63.715614
 30
0.0
 10
42.306250
 20
63.956241
 30
0.0
 10
42.906250
 20
64.224990
 30
0.0
 10
43.493750
 20
64.556241
 30
0.0
 10
44.062500
 20
64.931241
 30
0.0
 10
44.587500
 20
65.349990
 30
0.0
 10
45.081250
 20
65.799990
 30
0.0
 10
45.531250
 20
66.309365
 30
0.0
  0
SPLINE
  5
179
100
AcDbEntity
  8
0
 62
7
100
AcDbSpline
 70
0
 71
3
 72
10
 73
6
 74
4
 40
0.000000
 40
0.000000
 40
0.000000
 40
0.000000
 40
1.643725
 40
2.891301
 40
4.077728
 40
4.077728
 40
4.077728
 40
4.077728
 10
24.637500
 20
62.981250
 30
0.0
 10
24.110723
 20
62.897673
 30
0.0
 10
23.184125
 20
62.750661
 30
0.0
 10
21.765719
 20
62.107622
 30
0.0
 10
21.799271
 20
61.222209
 30
0.0
 10
21.815625
 20
60.790625
 30
0.0
 11
24.637500
 21
62.981250
 31
0.0
 11
23.031597
 21
62.630671
 31
0.0
 11
21.975694
 21
61.966204
 31
0.0
 11
21.815625
 21
60.790625
 31
0.0
  0
SPLINE
  5
17a
100
AcDbEntity
  8
0
 62
7
100
AcDbSpline
 70
0
 71
3
 72
10
 73
6
 74
4
 40
0.000000
 40
0.000000
 40
0.000000
 40
0.000000
 40
1.417135
 40
2.205891
 40
3.014075
 40
3.014075
 40
3.014075
 40
3.014075
 10
33.300000
 20
53.937500
 30
0.0
 10
33.445048
 20
53.438170
 30
0.0
 10
33.670828
 20
52.660920
 30
0.0
 10
32.883188
 20
51.879254
 30
0.0
 10
32.373546
 20
51.724960
 30
0.0
 10
32.115625
 20
51.646874
 30
0.0
 11
33.300000
 21
53.937500
 31
0.0
 11
33.404051
 21
52.524190
 31
0.0
 11
32.865741
 21
51.947685
 31
0.0
 11
32.115625
 21
51.646874
 31
0.0
  0
LWPOLYLINE
  5
17b
100
AcDbEntity
  8
0
 62
7
100
AcDbPolyline
 90
2
 70
0
 10
50.137500
 20
22.750000
 30
0.0
 10
50.137500
 20
30.534374
 30
0.0
  0
SPLINE
  5
17c
100
AcDbEntity
  8
0
 62
7
100
AcDbSpline
 70
0
 71
3
 72
19
 73
15
 74
13
 40
0.000000
 40
0.000000
 40
0.000000
 40
0.000000
 40
0.667420
 40
1.313637
 40
1.981057
 40
2.647136
 40
3.293844
 40
3.961445
 40
4.627705
 40
5.274905
 40
5.941165
 40
6.608766
 40
7.255474
 40
7.921553
 40
7.921553
 40
7.921553
 40
7.921553
 10
26.909374
 20
42.100001
 30
0.0
 10
26.874593
 20
41.874908
 30
0.0
 10
26.806134
 20
41.431872
 30
0.0
 10
26.298231
 20
40.943888
 30
0.0
 10
25.635929
 20
40.764509
 30
0.0
 10
24.966908
 20
40.944399
 30
0.0
 10
24.479224
 20
41.431679
 30
0.0
 10
24.298409
 20
42.099610
 30
0.0
 10
24.479731
 20
42.767340
 30
0.0
 10
24.966732
 20
43.254732
 30
0.0
 10
25.635928
 20
43.435922
 30
0.0
 10
26.298408
 20
43.255235
 30
0.0
 10
26.805613
 20
42.767180
 30
0.0
 10
26.874449
 20
42.324571
 30
0.0
 10
26.909374
 20
42.100001
 30
0.0
 11
26.909374
 21
42.100001
 31
0.0
 11
26.735763
 21
41.455556
 31
0.0
 11
26.278819
 21
40.998612
 31
0.0
 11
25.634374
 21
40.825001
 31
0.0
 11
24.991319
 21
40.998612
 31
0.0
 11
24.533680
 21
41.455556
 31
0.0
 11
24.359374
 21
42.100001
 31
0.0
 11
24.533680
 21
42.743056
 31
0.0
 11
24.991319
 21
43.200695
 31
0.0
 11
25.634374
 21
43.375001
 31
0.0
 11
26.278819
 21
43.200695
 31
0.0
 11
26.735763
 21
42.743056
 31
0.0
 11
26.909374
 21
42.100001
 31
0.0
  0
LWPOLYLINE
  5
17d
100
AcDbEntity
  8
0
 62
7
100
AcDbPolyline
 90
2
 70
0
 10
26.909374
 20
42.100001
 30
0.0
 10
26.909374
 20
42.100001
 30
0.0
  0
ENDSEC
  0
SECTION
  2
OBJECTS
  0
DICTIONARY
  5
C
330
0
100
AcDbDictionary
  3
ACAD_GROUP
350
D
  3
ACAD_MLINESTYLE
350
17
  0
DICTIONARY
  5
D
330
C
100
AcDbDictionary
  0
DICTIONARY
  5
1A
330
C
100
AcDbDictionary
  0
DICTIONARY
  5
17
330
C
100
AcDbDictionary
  3
STANDARD
350
18
  0
DICTIONARY
  5
19
330
C
100
AcDbDictionary
  0
ENDSEC
  0
EOF
