  0
SECTION
  2
HEADER
  9
$ACADVER
  1
AC1014
  9
$HANDSEED
  5
FFFF
  9
$MEASUREMENT
 70
     1
  0
ENDSEC
  0
SECTION
  2
TABLES
  0
TABLE
  2
VPORT
  5
8
330
0
100
AcDbSymbolTable
 70
     4
  0
VPORT
  5
2E
330
8
100
AcDbSymbolTableRecord
100
AcDbViewportTableRecord
  2
*ACTIVE
 70
     0
 10
0.0
 20
0.0
 11
1.0
 21
1.0
 12
210.0
 22
148.5
 13
0.0
 23
0.0
 14
10.0
 24
10.0
 15
10.0
 25
10.0
 16
0.0
 26
0.0
 36
1.0
 17
0.0
 27
0.0
 37
0.0
 40
341.0
 41
1.24
 42
50.0
 43
0.0
 44
0.0
 50
0.0
 51
0.0
 71
     0
 72
   100
 73
     1
 74
     3
 75
     0
 76
     0
 77
     0
 78
     0
  0
ENDTAB
  0
TABLE
  2
LTYPE
  5
5
330
0
100
AcDbSymbolTable
 70
     1
  0
LTYPE
  5
14
330
5
100
AcDbSymbolTableRecord
100
AcDbLinetypeTableRecord
  2
BYBLOCK
 70
     0
  3

 72
    65
 73
     0
 40
0.0
  0
LTYPE
  5
15
330
5
100
AcDbSymbolTableRecord
100
AcDbLinetypeTableRecord
  2
BYLAYER
 70
     0
  3

 72
    65
 73
     0
 40
0.0
  0
LTYPE
  5
16
330
5
100
AcDbSymbolTableRecord
100
AcDbLinetypeTableRecord
  2
CONTINUOUS
 70
     0
  3
Solid line
 72
    65
 73
     0
 40
0.0
  0
ENDTAB
  0
TABLE
  2
LAYER
  5
2
100
AcDbSymbolTable
 70
2
  0
LAYER
  5
50
100
AcDbSymbolTableRecord
100
AcDbLayerTableRecord
  2
0
 70
0
  6
CONTINUOUS
  0
LAYER
  5
51
100
AcDbSymbolTableRecord
100
AcDbLayerTableRecord
  2
Layer_1
 70
0
  6
CONTINUOUS
  0
ENDTAB
  0
TABLE
  2
STYLE
  5
3
330
0
100
AcDbSymbolTable
 70
     1
  0
STYLE
  5
11
330
3
100
AcDbSymbolTableRecord
100
AcDbTextStyleTableRecord
  2
STANDARD
 70
     0
 40
0.0
 41
1.0
 50
0.0
 71
     0
 42
2.5
  3
txt
  4

  0
ENDTAB
  0
TABLE
  2
VIEW
  5
6
330
0
100
AcDbSymbolTable
 70
     0
  0
ENDTAB
  0
TABLE
  2
UCS
  5
7
330
0
100
AcDbSymbolTable
 70
     0
  0
ENDTAB
  0
TABLE
  2
APPID
  5
9
330
0
100
AcDbSymbolTable
 70
     2
  0
APPID
  5
12
330
9
100
AcDbSymbolTableRecord
100
AcDbRegAppTableRecord
  2
ACAD
 70
     0
  0
ENDTAB
  0
TABLE
  2
DIMSTYLE
  5
A
330
0
100
AcDbSymbolTable
 70
     1
  0
DIMSTYLE
105
27
330
A
100
AcDbSymbolTableRecord
100
AcDbDimStyleTableRecord
  2
ISO-25
 70
     0
  3

  4

  5

  6

  7

 40
1.0
 41
2.5
 42
0.625
 43
3.75
 44
1.25
 45
0.0
 46
0.0
 47
0.0
 48
0.0
140
2.5
141
2.5
142
0.0
143
0.03937007874016
144
1.0
145
0.0
146
1.0
147
0.625
 71
     0
 72
     0
 73
     0
 74
     0
 75
     0
 76
     0
 77
     1
 78
     8
170
     0
171
     3
172
     1
173
     0
174
     0
175
     0
176
     0
177
     0
178
     0
270
     2
271
     2
272
     2
273
     2
274
     3
340
11
275
     0
280
     0
281
     0
282
     0
283
     0
284
     8
285
     0
286
     0
287
     3
288
     0
  0
ENDTAB
  0
TABLE
  2
BLOCK_RECORD
  5
1
330
0
100
AcDbSymbolTable
 70
     1
  0
BLOCK_RECORD
  5
1F
330
1
100
AcDbSymbolTableRecord
100
AcDbBlockTableRecord
  2
*MODEL_SPACE
  0
BLOCK_RECORD
  5
1B
330
1
100
AcDbSymbolTableRecord
100
AcDbBlockTableRecord
  2
*PAPER_SPACE
  0
ENDTAB
  0
ENDSEC
  0
SECTION
  2
BLOCKS
  0
BLOCK
  5
20
330
1F
100
AcDbEntity
  8
0
100
AcDbBlockBegin
  2
*MODEL_SPACE
 70
     0
 10
0.0
 20
0.0
 30
0.0
  3
*MODEL_SPACE
  1

  0
ENDBLK
  5
21
330
1F
100
AcDbEntity
  8
0
100
AcDbBlockEnd
  0
BLOCK
  5
1C
330
1B
100
AcDbEntity
 67
     1
  8
0
100
AcDbBlockBegin
  2
*PAPER_SPACE
  1

  0
ENDBLK
  5
1D
330
1B
100
AcDbEntity
 67
     1
  8
0
100
AcDbBlockEnd
  0
ENDSEC
  0
SECTION
  2
ENTITIES
  0
LWPOLYLINE
  5
100
100
AcDbEntity
  8
Layer_1
 62
7
100
AcDbPolyline
 90
6
 70
1
 10
43.865712
 20
777.441412
 30
0.0
 10
50.105712
 20
777.441412
 30
0.0
 10
50.105712
 20
775.761412
 30
0.0
 10
43.865712
 20
775.761412
 30
0.0
 10
43.865712
 20
777.441412
 30
0.0
 10
43.865712
 20
777.441412
 30
0.0
  0
LWPOLYLINE
  5
101
100
AcDbEntity
  8
Layer_1
 62
7
100
AcDbPolyline
 90
6
 70
1
 10
43.865712
 20
781.041412
 30
0.0
 10
50.105712
 20
781.041412
 30
0.0
 10
50.105712
 20
779.361412
 30
0.0
 10
43.865712
 20
779.361412
 30
0.0
 10
43.865712
 20
781.041412
 30
0.0
 10
43.865712
 20
781.041412
 30
0.0
  0
LWPOLYLINE
  5
102
100
AcDbEntity
  8
Layer_1
 62
7
100
AcDbPolyline
 90
6
 70
1
 10
43.865712
 20
784.641412
 30
0.0
 10
50.105712
 20
784.641412
 30
0.0
 10
50.105712
 20
782.961412
 30
0.0
 10
43.865712
 20
782.961412
 30
0.0
 10
43.865712
 20
784.641412
 30
0.0
 10
43.865712
 20
784.641412
 30
0.0
  0
LWPOLYLINE
  5
103
100
AcDbEntity
  8
Layer_1
 62
7
100
AcDbPolyline
 90
6
 70
1
 10
43.865712
 20
788.241412
 30
0.0
 10
50.105712
 20
788.241412
 30
0.0
 10
50.105712
 20
786.561412
 30
0.0
 10
43.865712
 20
786.561412
 30
0.0
 10
43.865712
 20
788.241412
 30
0.0
 10
43.865712
 20
788.241412
 30
0.0
  0
LWPOLYLINE
  5
104
100
AcDbEntity
  8
Layer_1
 62
7
100
AcDbPolyline
 90
6
 70
1
 10
24.785712
 20
788.241412
 30
0.0
 10
31.025712
 20
788.241412
 30
0.0
 10
31.025712
 20
786.561412
 30
0.0
 10
24.785712
 20
786.561412
 30
0.0
 10
24.785712
 20
788.241412
 30
0.0
 10
24.785712
 20
788.241412
 30
0.0
  0
LWPOLYLINE
  5
105
100
AcDbEntity
  8
Layer_1
 62
7
100
AcDbPolyline
 90
6
 70
1
 10
24.785712
 20
784.641412
 30
0.0
 10
31.025712
 20
784.641412
 30
0.0
 10
31.025712
 20
782.961412
 30
0.0
 10
24.785712
 20
782.961412
 30
0.0
 10
24.785712
 20
784.641412
 30
0.0
 10
24.785712
 20
784.641412
 30
0.0
  0
LWPOLYLINE
  5
106
100
AcDbEntity
  8
Layer_1
 62
7
100
AcDbPolyline
 90
6
 70
1
 10
24.785712
 20
781.041412
 30
0.0
 10
31.025712
 20
781.041412
 30
0.0
 10
31.025712
 20
779.361412
 30
0.0
 10
24.785712
 20
779.361412
 30
0.0
 10
24.785712
 20
781.041412
 30
0.0
 10
24.785712
 20
781.041412
 30
0.0
  0
LWPOLYLINE
  5
107
100
AcDbEntity
  8
Layer_1
 62
7
100
AcDbPolyline
 90
6
 70
1
 10
24.785712
 20
777.441412
 30
0.0
 10
31.025712
 20
777.441412
 30
0.0
 10
31.025712
 20
775.761412
 30
0.0
 10
24.785712
 20
775.761412
 30
0.0
 10
24.785712
 20
777.441412
 30
0.0
 10
24.785712
 20
777.441412
 30
0.0
  0
LWPOLYLINE
  5
108
100
AcDbEntity
  8
Layer_1
 62
7
100
AcDbPolyline
 90
6
 70
1
 10
43.745712
 20
800.241412
 30
0.0
 10
47.105712
 20
800.241412
 30
0.0
 10
47.105712
 20
797.961412
 30
0.0
 10
43.745712
 20
797.961412
 30
0.0
 10
43.745712
 20
800.241412
 30
0.0
 10
43.745712
 20
800.241412
 30
0.0
  0
LWPOLYLINE
  5
109
100
AcDbEntity
  8
Layer_1
 62
7
100
AcDbPolyline
 90
6
 70
1
 10
43.745712
 20
795.141412
 30
0.0
 10
47.105712
 20
795.141412
 30
0.0
 10
47.105712
 20
792.861412
 30
0.0
 10
43.745712
 20
792.861412
 30
0.0
 10
43.745712
 20
795.141412
 30
0.0
 10
43.745712
 20
795.141412
 30
0.0
  0
LWPOLYLINE
  5
10a
100
AcDbEntity
  8
Layer_1
 62
7
100
AcDbPolyline
 90
6
 70
1
 10
26.525712
 20
800.601412
 30
0.0
 10
29.885712
 20
800.601412
 30
0.0
 10
29.885712
 20
798.321412
 30
0.0
 10
26.525712
 20
798.321412
 30
0.0
 10
26.525712
 20
800.601412
 30
0.0
 10
26.525712
 20
800.601412
 30
0.0
  0
LWPOLYLINE
  5
10b
100
AcDbEntity
  8
Layer_1
 62
7
100
AcDbPolyline
 90
6
 70
1
 10
26.525712
 20
795.501412
 30
0.0
 10
29.885712
 20
795.501412
 30
0.0
 10
29.885712
 20
793.221412
 30
0.0
 10
26.525712
 20
793.221412
 30
0.0
 10
26.525712
 20
795.501412
 30
0.0
 10
26.525712
 20
795.501412
 30
0.0
  0
LWPOLYLINE
  5
10c
100
AcDbEntity
  8
Layer_1
 62
7
100
AcDbPolyline
 90
6
 70
1
 10
49.505712
 20
795.141412
 30
0.0
 10
52.865712
 20
795.141412
 30
0.0
 10
52.865712
 20
792.861412
 30
0.0
 10
49.505712
 20
792.861412
 30
0.0
 10
49.505712
 20
795.141412
 30
0.0
 10
49.505712
 20
795.141412
 30
0.0
  0
LWPOLYLINE
  5
10d
100
AcDbEntity
  8
Layer_1
 62
7
100
AcDbPolyline
 90
6
 70
1
 10
49.505712
 20
800.241412
 30
0.0
 10
52.865712
 20
800.241412
 30
0.0
 10
52.865712
 20
797.961412
 30
0.0
 10
49.505712
 20
797.961412
 30
0.0
 10
49.505712
 20
800.241412
 30
0.0
 10
49.505712
 20
800.241412
 30
0.0
  0
LWPOLYLINE
  5
10e
100
AcDbEntity
  8
Layer_1
 62
7
100
AcDbPolyline
 90
6
 70
1
 10
56.525712
 20
796.461412
 30
0.0
 10
59.525712
 20
796.461412
 30
0.0
 10
59.525712
 20
790.221412
 30
0.0
 10
56.525712
 20
790.221412
 30
0.0
 10
56.525712
 20
796.461412
 30
0.0
 10
56.525712
 20
796.461412
 30
0.0
  0
LWPOLYLINE
  5
10f
100
AcDbEntity
  8
Layer_1
 62
7
100
AcDbPolyline
 90
6
 70
1
 10
56.525712
 20
808.701412
 30
0.0
 10
59.525712
 20
808.701412
 30
0.0
 10
59.525712
 20
802.461412
 30
0.0
 10
56.525712
 20
802.461412
 30
0.0
 10
56.525712
 20
808.701412
 30
0.0
 10
56.525712
 20
808.701412
 30
0.0
  0
LWPOLYLINE
  5
110
100
AcDbEntity
  8
Layer_1
 62
7
100
AcDbPolyline
 90
6
 70
1
 10
30.725712
 20
773.301412
 30
0.0
 10
33.005712
 20
773.301412
 30
0.0
 10
33.005712
 20
769.941412
 30
0.0
 10
30.725712
 20
769.941412
 30
0.0
 10
30.725712
 20
773.301412
 30
0.0
 10
30.725712
 20
773.301412
 30
0.0
  0
LWPOLYLINE
  5
111
100
AcDbEntity
  8
Layer_1
 62
7
100
AcDbPolyline
 90
6
 70
1
 10
25.625712
 20
773.301412
 30
0.0
 10
27.905712
 20
773.301412
 30
0.0
 10
27.905712
 20
769.941412
 30
0.0
 10
25.625712
 20
769.941412
 30
0.0
 10
25.625712
 20
773.301412
 30
0.0
 10
25.625712
 20
773.301412
 30
0.0
  0
LWPOLYLINE
  5
112
100
AcDbEntity
  8
Layer_1
 62
7
100
AcDbPolyline
 90
6
 70
1
 10
32.705712
 20
795.261412
 30
0.0
 10
36.065712
 20
795.261412
 30
0.0
 10
36.065712
 20
791.901412
 30
0.0
 10
32.705712
 20
791.901412
 30
0.0
 10
32.705712
 20
795.261412
 30
0.0
 10
32.705712
 20
795.261412
 30
0.0
  0
LWPOLYLINE
  5
113
100
AcDbEntity
  8
Layer_1
 62
7
100
AcDbPolyline
 90
6
 70
1
 10
32.705712
 20
801.201412
 30
0.0
 10
36.065712
 20
801.201412
 30
0.0
 10
36.065712
 20
797.841412
 30
0.0
 10
32.705712
 20
797.841412
 30
0.0
 10
32.705712
 20
801.201412
 30
0.0
 10
32.705712
 20
801.201412
 30
0.0
  0
LWPOLYLINE
  5
114
100
AcDbEntity
  8
Layer_1
 62
7
100
AcDbPolyline
 90
6
 70
1
 10
37.985712
 20
795.141412
 30
0.0
 10
41.345712
 20
795.141412
 30
0.0
 10
41.345712
 20
791.781412
 30
0.0
 10
37.985712
 20
791.781412
 30
0.0
 10
37.985712
 20
795.141412
 30
0.0
 10
37.985712
 20
795.141412
 30
0.0
  0
LWPOLYLINE
  5
115
100
AcDbEntity
  8
Layer_1
 62
7
100
AcDbPolyline
 90
6
 70
1
 10
37.985712
 20
801.081412
 30
0.0
 10
41.345712
 20
801.081412
 30
0.0
 10
41.345712
 20
797.721412
 30
0.0
 10
37.985712
 20
797.721412
 30
0.0
 10
37.985712
 20
801.081412
 30
0.0
 10
37.985712
 20
801.081412
 30
0.0
  0
LWPOLYLINE
  5
116
100
AcDbEntity
  8
Layer_1
 62
7
100
AcDbPolyline
 90
6
 70
1
 10
61.265712
 20
789.021412
 30
0.0
 10
63.545712
 20
789.021412
 30
0.0
 10
63.545712
 20
785.661412
 30
0.0
 10
61.265712
 20
785.661412
 30
0.0
 10
61.265712
 20
789.021412
 30
0.0
 10
61.265712
 20
789.021412
 30
0.0
  0
LWPOLYLINE
  5
117
100
AcDbEntity
  8
Layer_1
 62
7
100
AcDbPolyline
 90
6
 70
1
 10
56.225712
 20
789.021412
 30
0.0
 10
58.505712
 20
789.021412
 30
0.0
 10
58.505712
 20
785.661412
 30
0.0
 10
56.225712
 20
785.661412
 30
0.0
 10
56.225712
 20
789.021412
 30
0.0
 10
56.225712
 20
789.021412
 30
0.0
  0
LWPOLYLINE
  5
118
100
AcDbEntity
  8
Layer_1
 62
7
100
AcDbPolyline
 90
6
 70
1
 10
66.485712
 20
804.201412
 30
0.0
 10
69.845712
 20
804.201412
 30
0.0
 10
69.845712
 20
800.841412
 30
0.0
 10
66.485712
 20
800.841412
 30
0.0
 10
66.485712
 20
804.201412
 30
0.0
 10
66.485712
 20
804.201412
 30
0.0
  0
LWPOLYLINE
  5
119
100
AcDbEntity
  8
Layer_1
 62
7
100
AcDbPolyline
 90
6
 70
1
 10
72.425712
 20
804.201412
 30
0.0
 10
75.785712
 20
804.201412
 30
0.0
 10
75.785712
 20
800.841412
 30
0.0
 10
72.425712
 20
800.841412
 30
0.0
 10
72.425712
 20
804.201412
 30
0.0
 10
72.425712
 20
804.201412
 30
0.0
  0
LWPOLYLINE
  5
11a
100
AcDbEntity
  8
Layer_1
 62
7
100
AcDbPolyline
 90
6
 70
1
 10
62.165712
 20
798.021412
 30
0.0
 10
65.525712
 20
798.021412
 30
0.0
 10
65.525712
 20
795.741412
 30
0.0
 10
62.165712
 20
795.741412
 30
0.0
 10
62.165712
 20
798.021412
 30
0.0
 10
62.165712
 20
798.021412
 30
0.0
  0
LWPOLYLINE
  5
11b
100
AcDbEntity
  8
Layer_1
 62
7
100
AcDbPolyline
 90
6
 70
1
 10
62.165712
 20
792.921412
 30
0.0
 10
65.525712
 20
792.921412
 30
0.0
 10
65.525712
 20
790.641412
 30
0.0
 10
62.165712
 20
790.641412
 30
0.0
 10
62.165712
 20
792.921412
 30
0.0
 10
62.165712
 20
792.921412
 30
0.0
  0
LWPOLYLINE
  5
11c
100
AcDbEntity
  8
Layer_1
 62
7
100
AcDbPolyline
 90
6
 70
1
 10
60.725712
 20
778.161412
 30
0.0
 10
64.085712
 20
778.161412
 30
0.0
 10
64.085712
 20
776.601412
 30
0.0
 10
60.725712
 20
776.601412
 30
0.0
 10
60.725712
 20
778.161412
 30
0.0
 10
60.725712
 20
778.161412
 30
0.0
  0
LWPOLYLINE
  5
11d
100
AcDbEntity
  8
Layer_1
 62
7
100
AcDbPolyline
 90
6
 70
1
 10
60.725712
 20
780.861412
 30
0.0
 10
64.085712
 20
780.861412
 30
0.0
 10
64.085712
 20
779.301412
 30
0.0
 10
60.725712
 20
779.301412
 30
0.0
 10
60.725712
 20
780.861412
 30
0.0
 10
60.725712
 20
780.861412
 30
0.0
  0
LWPOLYLINE
  5
11e
100
AcDbEntity
  8
Layer_1
 62
7
100
AcDbPolyline
 90
6
 70
1
 10
60.725712
 20
783.501412
 30
0.0
 10
64.085712
 20
783.501412
 30
0.0
 10
64.085712
 20
781.941412
 30
0.0
 10
60.725712
 20
781.941412
 30
0.0
 10
60.725712
 20
783.501412
 30
0.0
 10
60.725712
 20
783.501412
 30
0.0
  0
LWPOLYLINE
  5
11f
100
AcDbEntity
  8
Layer_1
 62
7
100
AcDbPolyline
 90
6
 70
1
 10
53.345712
 20
783.501412
 30
0.0
 10
56.705712
 20
783.501412
 30
0.0
 10
56.705712
 20
781.941412
 30
0.0
 10
53.345712
 20
781.941412
 30
0.0
 10
53.345712
 20
783.501412
 30
0.0
 10
53.345712
 20
783.501412
 30
0.0
  0
LWPOLYLINE
  5
120
100
AcDbEntity
  8
Layer_1
 62
7
100
AcDbPolyline
 90
6
 70
1
 10
53.345712
 20
778.161412
 30
0.0
 10
56.705712
 20
778.161412
 30
0.0
 10
56.705712
 20
776.601412
 30
0.0
 10
53.345712
 20
776.601412
 30
0.0
 10
53.345712
 20
778.161412
 30
0.0
 10
53.345712
 20
778.161412
 30
0.0
  0
LWPOLYLINE
  5
121
100
AcDbEntity
  8
Layer_1
 62
7
100
AcDbPolyline
 90
6
 70
1
 10
49.745712
 20
763.281412
 30
0.0
 10
56.225712
 20
763.281412
 30
0.0
 10
56.225712
 20
758.721412
 30
0.0
 10
49.745712
 20
758.721412
 30
0.0
 10
49.745712
 20
763.281412
 30
0.0
 10
49.745712
 20
763.281412
 30
0.0
  0
LWPOLYLINE
  5
122
100
AcDbEntity
  8
Layer_1
 62
7
100
AcDbPolyline
 90
6
 70
1
 10
31.925712
 20
763.281412
 30
0.0
 10
38.405712
 20
763.281412
 30
0.0
 10
38.405712
 20
758.721412
 30
0.0
 10
31.925712
 20
758.721412
 30
0.0
 10
31.925712
 20
763.281412
 30
0.0
 10
31.925712
 20
763.281412
 30
0.0
  0
LWPOLYLINE
  5
123
100
AcDbEntity
  8
Layer_1
 62
7
100
AcDbPolyline
 90
6
 70
1
 10
46.265712
 20
810.201412
 30
0.0
 10
47.345712
 20
810.201412
 30
0.0
 10
47.345712
 20
804.921412
 30
0.0
 10
46.265712
 20
804.921412
 30
0.0
 10
46.265712
 20
810.201412
 30
0.0
 10
46.265712
 20
810.201412
 30
0.0
  0
LWPOLYLINE
  5
124
100
AcDbEntity
  8
Layer_1
 62
7
100
AcDbPolyline
 90
6
 70
1
 10
44.405712
 20
810.201412
 30
0.0
 10
45.485712
 20
810.201412
 30
0.0
 10
45.485712
 20
804.921412
 30
0.0
 10
44.405712
 20
804.921412
 30
0.0
 10
44.405712
 20
810.201412
 30
0.0
 10
44.405712
 20
810.201412
 30
0.0
  0
LWPOLYLINE
  5
125
100
AcDbEntity
  8
Layer_1
 62
7
100
AcDbPolyline
 90
6
 70
1
 10
42.605712
 20
810.201412
 30
0.0
 10
43.685712
 20
810.201412
 30
0.0
 10
43.685712
 20
804.921412
 30
0.0
 10
42.605712
 20
804.921412
 30
0.0
 10
42.605712
 20
810.201412
 30
0.0
 10
42.605712
 20
810.201412
 30
0.0
  0
LWPOLYLINE
  5
126
100
AcDbEntity
  8
Layer_1
 62
7
100
AcDbPolyline
 90
6
 70
1
 10
40.745712
 20
810.201412
 30
0.0
 10
41.825712
 20
810.201412
 30
0.0
 10
41.825712
 20
804.921412
 30
0.0
 10
40.745712
 20
804.921412
 30
0.0
 10
40.745712
 20
810.201412
 30
0.0
 10
40.745712
 20
810.201412
 30
0.0
  0
LWPOLYLINE
  5
127
100
AcDbEntity
  8
Layer_1
 62
7
100
AcDbPolyline
 90
6
 70
1
 10
38.885712
 20
810.201412
 30
0.0
 10
39.965712
 20
810.201412
 30
0.0
 10
39.965712
 20
804.921412
 30
0.0
 10
38.885712
 20
804.921412
 30
0.0
 10
38.885712
 20
810.201412
 30
0.0
 10
38.885712
 20
810.201412
 30
0.0
  0
LWPOLYLINE
  5
128
100
AcDbEntity
  8
Layer_1
 62
7
100
AcDbPolyline
 90
6
 70
1
 10
51.605712
 20
818.421412
 30
0.0
 10
57.005712
 20
818.421412
 30
0.0
 10
57.005712
 20
813.021412
 30
0.0
 10
51.605712
 20
813.021412
 30
0.0
 10
51.605712
 20
818.421412
 30
0.0
 10
51.605712
 20
818.421412
 30
0.0
  0
LWPOLYLINE
  5
129
100
AcDbEntity
  8
Layer_1
 62
7
100
AcDbPolyline
 90
6
 70
1
 10
29.285712
 20
818.421412
 30
0.0
 10
34.685712
 20
818.421412
 30
0.0
 10
34.685712
 20
813.021412
 30
0.0
 10
29.285712
 20
813.021412
 30
0.0
 10
29.285712
 20
818.421412
 30
0.0
 10
29.285712
 20
818.421412
 30
0.0
  0
LWPOLYLINE
  5
12a
100
AcDbEntity
  8
Layer_1
 62
7
100
AcDbPolyline
 90
6
 70
1
 10
43.805712
 20
818.421412
 30
0.0
 10
49.205712
 20
818.421412
 30
0.0
 10
49.205712
 20
813.021412
 30
0.0
 10
43.805712
 20
813.021412
 30
0.0
 10
43.805712
 20
818.421412
 30
0.0
 10
43.805712
 20
818.421412
 30
0.0
  0
LWPOLYLINE
  5
12b
100
AcDbEntity
  8
Layer_1
 62
7
100
AcDbPolyline
 90
6
 70
1
 10
37.025712
 20
818.421412
 30
0.0
 10
42.425712
 20
818.421412
 30
0.0
 10
42.425712
 20
813.021412
 30
0.0
 10
37.025712
 20
813.021412
 30
0.0
 10
37.025712
 20
818.421412
 30
0.0
 10
37.025712
 20
818.421412
 30
0.0
  0
LWPOLYLINE
  5
12c
100
AcDbEntity
  8
Layer_1
 62
7
100
AcDbPolyline
 90
6
 70
1
 10
46.985712
 20
771.801412
 30
0.0
 10
53.225712
 20
771.801412
 30
0.0
 10
53.225712
 20
768.801412
 30
0.0
 10
46.985712
 20
768.801412
 30
0.0
 10
46.985712
 20
771.801412
 30
0.0
 10
46.985712
 20
771.801412
 30
0.0
  0
LWPOLYLINE
  5
12d
100
AcDbEntity
  8
Layer_1
 62
7
100
AcDbPolyline
 90
6
 70
1
 10
59.165712
 20
771.801412
 30
0.0
 10
65.405712
 20
771.801412
 30
0.0
 10
65.405712
 20
768.801412
 30
0.0
 10
59.165712
 20
768.801412
 30
0.0
 10
59.165712
 20
771.801412
 30
0.0
 10
59.165712
 20
771.801412
 30
0.0
  0
ENDSEC
  0
SECTION
  2
OBJECTS
  0
DICTIONARY
  5
C
330
0
100
AcDbDictionary
  3
ACAD_GROUP
350
D
  3
ACAD_MLINESTYLE
350
17
  0
DICTIONARY
  5
D
330
C
100
AcDbDictionary
  0
DICTIONARY
  5
1A
330
C
100
AcDbDictionary
  0
DICTIONARY
  5
17
330
C
100
AcDbDictionary
  3
STANDARD
350
18
  0
DICTIONARY
  5
19
330
C
100
AcDbDictionary
  0
ENDSEC
  0
EOF
